  0
SECTION
  2
HEADER
  9
$ACADVER
  1
AC1015
  9
$ACADMAINTVER
 70
     6
  9
$DWGCODEPAGE
  3
ANSI_1254
  9
$INSBASE
 10
0.0
 20
0.0
 30
0.0
  9
$EXTMIN
 10
0.0
 20
0.0
 30
0.0
  9
$EXTMAX
 10
279.4
 20
215.9
 30
0.0
  9
$LIMMIN
 10
0.0
 20
0.0
  9
$LIMMAX
 10
279.4
 20
215.9
  9
$ORTHOMODE
 70
     0
  9
$REGENMODE
 70
     1
  9
$FILLMODE
 70
     1
  9
$QTEXTMODE
 70
     0
  9
$MIRRTEXT
 70
     1
  9
$LTSCALE
 40
1.0
  9
$ATTMODE
 70
     1
  9
$TEXTSIZE
 40
3.5
  9
$TRACEWID
 40
1.0
  9
$TEXTSTYLE
  7
Standard
  9
$CLAYER
  8
0
  9
$CELTYPE
  6
ByLayer
  9
$CECOLOR
 62
   256
  9
$CELTSCALE
 40
1.0
  9
$DISPSILH
 70
     0
  9
$DIMSCALE
 40
1.0
  9
$DIMASZ
 40
3.5
  9
$DIMEXO
 40
1.0
  9
$DIMDLI
 40
3.75
  9
$DIMRND
 40
0.0
  9
$DIMDLE
 40
0.0
  9
$DIMEXE
 40
1.0
  9
$DIMTP
 40
0.0
  9
$DIMTM
 40
0.0
  9
$DIMTXT
 40
3.5
  9
$DIMCEN
 40
2.5
  9
$DIMTSZ
 40
0.0
  9
$DIMTOL
 70
     0
  9
$DIMLIM
 70
     0
  9
$DIMTIH
 70
     1
  9
$DIMTOH
 70
     1
  9
$DIMSE1
 70
     0
  9
$DIMSE2
 70
     0
  9
$DIMTAD
 70
     1
  9
$DIMZIN
 70
     0
  9
$DIMBLK
  1

  9
$DIMASO
 70
     1
  9
$DIMSHO
 70
     1
  9
$DIMPOST
  1

  9
$DIMAPOST
  1

  9
$DIMALT
 70
     0
  9
$DIMALTD
 70
     3
  9
$DIMALTF
 40
0.0393700787
  9
$DIMLFAC
 40
1.0
  9
$DIMTOFL
 70
     1
  9
$DIMTVP
 40
0.0
  9
$DIMTIX
 70
     0
  9
$DIMSOXD
 70
     0
  9
$DIMSAH
 70
     0
  9
$DIMBLK1
  1

  9
$DIMBLK2
  1

  9
$DIMSTYLE
  2
ISO-25
  9
$DIMCLRD
 70
     0
  9
$DIMCLRE
 70
     0
  9
$DIMCLRT
 70
     0
  9
$DIMTFAC
 40
1.0
  9
$DIMGAP
 40
1.524
  9
$DIMJUST
 70
     0
  9
$DIMSD1
 70
     0
  9
$DIMSD2
 70
     0
  9
$DIMTOLJ
 70
     0
  9
$DIMTZIN
 70
     0
  9
$DIMALTZ
 70
     0
  9
$DIMALTTZ
 70
     0
  9
$DIMUPT
 70
     0
  9
$DIMDEC
 70
     2
  9
$DIMTDEC
 70
     2
  9
$DIMALTU
 70
     2
  9
$DIMALTTD
 70
     3
  9
$DIMTXSTY
  7
Standard
  9
$DIMAUNIT
 70
     0
  9
$DIMADEC
 70
     2
  9
$DIMALTRND
 40
0.0
  9
$DIMAZIN
 70
     0
  9
$DIMDSEP
 70
    44
  9
$DIMATFIT
 70
     3
  9
$DIMFRAC
 70
     0
  9
$DIMLDRBLK
  1

  9
$DIMLUNIT
 70
     2
  9
$DIMLWD
 70
    -2
  9
$DIMLWE
 70
    -2
  9
$DIMTMOVE
 70
     0
  9
$LUNITS
 70
     2
  9
$LUPREC
 70
     2
  9
$SKETCHINC
 40
1.0
  9
$FILLETRAD
 40
10.0
  9
$AUNITS
 70
     0
  9
$AUPREC
 70
     2
  9
$MENU
  1
.
  9
$ELEVATION
 40
0.0
  9
$PELEVATION
 40
0.0
  9
$THICKNESS
 40
0.0
  9
$LIMCHECK
 70
     0
  9
$CHAMFERA
 40
0.0
  9
$CHAMFERB
 40
0.0
  9
$CHAMFERC
 40
0.0
  9
$CHAMFERD
 40
0.0
  9
$SKPOLY
 70
     0
  9
$TDCREATE
 40
2458985.721547025
  9
$TDUCREATE
 40
2458985.596547025
  9
$TDUPDATE
 40
2458985.721547408
  9
$TDUUPDATE
 40
2458985.596547408
  9
$TDINDWG
 40
0.0000000116
  9
$TDUSRTIMER
 40
0.0000000116
  9
$USRTIMER
 70
     1
  9
$ANGBASE
 50
0.0
  9
$ANGDIR
 70
     0
  9
$PDMODE
 70
     0
  9
$PDSIZE
 40
-1.0
  9
$PLINEWID
 40
0.0
  9
$SPLFRAME
 70
     0
  9
$SPLINETYPE
 70
     6
  9
$SPLINESEGS
 70
     8
  9
$HANDSEED
  5
E2
  9
$SURFTAB1
 70
     6
  9
$SURFTAB2
 70
     6
  9
$SURFTYPE
 70
     6
  9
$SURFU
 70
     6
  9
$SURFV
 70
     6
  9
$UCSBASE
  2

  9
$UCSNAME
  2

  9
$UCSORG
 10
0.0
 20
0.0
 30
0.0
  9
$UCSXDIR
 10
1.0
 20
0.0
 30
0.0
  9
$UCSYDIR
 10
0.0
 20
1.0
 30
0.0
  9
$UCSORTHOREF
  2

  9
$UCSORTHOVIEW
 70
     0
  9
$UCSORGTOP
 10
0.0
 20
0.0
 30
0.0
  9
$UCSORGBOTTOM
 10
0.0
 20
0.0
 30
0.0
  9
$UCSORGLEFT
 10
0.0
 20
0.0
 30
0.0
  9
$UCSORGRIGHT
 10
0.0
 20
0.0
 30
0.0
  9
$UCSORGFRONT
 10
0.0
 20
0.0
 30
0.0
  9
$UCSORGBACK
 10
0.0
 20
0.0
 30
0.0
  9
$PUCSBASE
  2

  9
$PUCSNAME
  2

  9
$PUCSORG
 10
0.0
 20
0.0
 30
0.0
  9
$PUCSXDIR
 10
1.0
 20
0.0
 30
0.0
  9
$PUCSYDIR
 10
0.0
 20
1.0
 30
0.0
  9
$PUCSORTHOREF
  2

  9
$PUCSORTHOVIEW
 70
     0
  9
$PUCSORGTOP
 10
0.0
 20
0.0
 30
0.0
  9
$PUCSORGBOTTOM
 10
0.0
 20
0.0
 30
0.0
  9
$PUCSORGLEFT
 10
0.0
 20
0.0
 30
0.0
  9
$PUCSORGRIGHT
 10
0.0
 20
0.0
 30
0.0
  9
$PUCSORGFRONT
 10
0.0
 20
0.0
 30
0.0
  9
$PUCSORGBACK
 10
0.0
 20
0.0
 30
0.0
  9
$USERI1
 70
     0
  9
$USERI2
 70
     0
  9
$USERI3
 70
     0
  9
$USERI4
 70
     0
  9
$USERI5
 70
     0
  9
$USERR1
 40
0.0
  9
$USERR2
 40
0.0
  9
$USERR3
 40
0.0
  9
$USERR4
 40
0.0
  9
$USERR5
 40
0.0
  9
$WORLDVIEW
 70
     1
  9
$SHADEDGE
 70
     3
  9
$SHADEDIF
 70
    70
  9
$TILEMODE
 70
     1
  9
$MAXACTVP
 70
    64
  9
$PINSBASE
 10
0.0
 20
0.0
 30
0.0
  9
$PLIMCHECK
 70
     0
  9
$PEXTMIN
 10
1.0000000000E+20
 20
1.0000000000E+20
 30
1.0000000000E+20
  9
$PEXTMAX
 10
-1.0000000000E+20
 20
-1.0000000000E+20
 30
-1.0000000000E+20
  9
$PLIMMIN
 10
0.0
 20
0.0
  9
$PLIMMAX
 10
420.0
 20
297.0
  9
$UNITMODE
 70
     0
  9
$VISRETAIN
 70
     1
  9
$PLINEGEN
 70
     0
  9
$PSLTSCALE
 70
     1
  9
$TREEDEPTH
 70
  3020
  9
$CMLSTYLE
  2
Standard
  9
$CMLJUST
 70
     0
  9
$CMLSCALE
 40
20.0
  9
$PROXYGRAPHICS
 70
     1
  9
$MEASUREMENT
 70
     1
  9
$CELWEIGHT
370
    -1
  9
$ENDCAPS
280
     0
  9
$JOINSTYLE
280
     0
  9
$LWDISPLAY
290
     1
  9
$INSUNITS
 70
     4
  9
$HYPERLINKBASE
  1

  9
$STYLESHEET
  1

  9
$XEDIT
290
     1
  9
$CEPSNTYPE
380
     0
  9
$PSTYLEMODE
290
     1
  9
$FINGERPRINTGUID
  2
{c59bd172-0cc2-4f5e-a642-7bbb226a86dc}
  9
$VERSIONGUID
  2
{FAEB1C32-E019-11D5-929B-00C0DF256EC4}
  9
$EXTNAMES
290
     1
  9
$PSVPSCALE
 40
0.0
  9
$OLESTARTUP
290
     0
  0
ENDSEC
  0
SECTION
  2
CLASSES
  0
CLASS
  1
ACDBDICTIONARYWDFLT
  2
AcDbDictionaryWithDefault
  3
ObjectDBX Classes
 90
        0
280
     0
281
     0
  0
CLASS
  1
VISUALSTYLE
  2
AcDbVisualStyle
  3
ObjectDBX Classes
 90
     4095
280
     0
281
     0
  0
CLASS
  1
MATERIAL
  2
AcDbMaterial
  3
ObjectDBX Classes
 90
     1153
280
     0
281
     0
  0
CLASS
  1
SCALE
  2
AcDbScale
  3
ObjectDBX Classes
 90
     1153
280
     0
281
     0
  0
CLASS
  1
TABLESTYLE
  2
AcDbTableStyle
  3
ObjectDBX Classes
 90
     4095
280
     0
281
     0
  0
CLASS
  1
MLEADERSTYLE
  2
AcDbMLeaderStyle
  3
ACDB_MLEADERSTYLE_CLASS
 90
     4095
280
     0
281
     0
  0
CLASS
  1
SUN
  2
AcDbSun
  3
SCENEOE
 90
     1153
280
     0
281
     0
  0
CLASS
  1
ACDBPLACEHOLDER
  2
AcDbPlaceHolder
  3
ObjectDBX Classes
 90
        0
280
     0
281
     0
  0
CLASS
  1
LAYOUT
  2
AcDbLayout
  3
ObjectDBX Classes
 90
        0
280
     0
281
     0
  0
ENDSEC
  0
SECTION
  2
TABLES
  0
TABLE
  2
VPORT
  5
8
330
0
100
AcDbSymbolTable
 70
     1
  0
VPORT
  5
29
330
8
100
AcDbSymbolTableRecord
100
AcDbViewportTableRecord
  2
*Active
 70
     0
 10
0.0
 20
0.0
 11
1.0
 21
1.0
 12
139.7
 22
107.95
 13
0.0
 23
0.0
 14
10.0
 24
10.0
 15
10.0
 25
10.0
 16
0.0
 26
0.0
 36
1.0
 17
0.0
 27
0.0
 37
0.0
 40
215.9
 41
1.2941176471
 42
50.0
 43
0.0
 44
0.0
 50
0.0
 51
0.0
 71
     0
 72
  2000
 73
     1
 74
     3
 75
     0
 76
     0
 77
     0
 78
     0
281
     0
 65
     1
110
0.0
120
0.0
130
0.0
111
1.0
121
0.0
131
0.0
112
0.0
122
1.0
132
0.0
 79
     0
146
0.0
  0
ENDTAB
  0
TABLE
  2
LTYPE
  5
5
330
0
100
AcDbSymbolTable
 70
     6
  0
LTYPE
  5
14
330
5
100
AcDbSymbolTableRecord
100
AcDbLinetypeTableRecord
  2
ByBlock
 70
     0
  3

 72
    65
 73
     0
 40
0.0
  0
LTYPE
  5
15
330
5
100
AcDbSymbolTableRecord
100
AcDbLinetypeTableRecord
  2
ByLayer
 70
     0
  3

 72
    65
 73
     0
 40
0.0
  0
LTYPE
  5
16
330
5
100
AcDbSymbolTableRecord
100
AcDbLinetypeTableRecord
  2
Continuous
 70
     0
  3
Solid line
 72
    65
 73
     0
 40
0.0
  0
LTYPE
  5
6E
330
5
100
AcDbSymbolTableRecord
100
AcDbLinetypeTableRecord
  2
HIDDEN
 70
     0
  3
Hidden __ __ __ __ __ __ __ __ __ __ __ __ __ __
 72
    65
 73
     2
 40
1.905
 49
1.27
 74
     0
 49
-0.635
 74
     0
  0
LTYPE
  5
6F
330
5
100
AcDbSymbolTableRecord
100
AcDbLinetypeTableRecord
  2
PHANTOM
 70
     0
  3
Phantom ______  __  __  ______  __  __  ______
 72
    65
 73
     6
 40
12.7
 49
6.35
 74
     0
 49
-1.27
 74
     0
 49
1.27
 74
     0
 49
-1.27
 74
     0
 49
1.27
 74
     0
 49
-1.27
 74
     0
  0
LTYPE
  5
70
330
5
100
AcDbSymbolTableRecord
100
AcDbLinetypeTableRecord
  2
CENTER
 70
     0
  3
Center ____ _ ____ _ ____ _ ____ _ ____ _ ____
 72
    65
 73
     4
 40
10.16
 49
6.35
 74
     0
 49
-1.27
 74
     0
 49
1.27
 74
     0
 49
-1.27
 74
     0
  0
LTYPE
  5
71
330
5
100
AcDbSymbolTableRecord
100
AcDbLinetypeTableRecord
  2
CENTERX2
 70
     0
  3
Center (2x) ________  __  ________  __  _____
 72
    65
 73
     4
 40
20.32
 49
12.7
 74
     0
 49
-2.54
 74
     0
 49
2.54
 74
     0
 49
-2.54
 74
     0
  0
LTYPE
  5
72
330
5
100
AcDbSymbolTableRecord
100
AcDbLinetypeTableRecord
  2
DOT2
 70
     0
  3
Dot (.5x) ........................................
 72
    65
 73
     2
 40
0.635
 49
0.0
 74
     0
 49
-0.635
 74
     0
  0
ENDTAB
  0
TABLE
  2
LAYER
  5
2
330
0
100
AcDbSymbolTable
 70
    17
  0
LAYER
  5
10
330
2
100
AcDbSymbolTableRecord
100
AcDbLayerTableRecord
  2
0
 70
     0
 62
     7
  6
Continuous
370
    -3
390
F
  0
LAYER
  5
73
330
2
100
AcDbSymbolTableRecord
100
AcDbLayerTableRecord
  2
FORMAT
 70
     0
 62
     7
  6
Continuous
370
    -3
390
F
  0
LAYER
  5
74
330
2
100
AcDbSymbolTableRecord
100
AcDbLayerTableRecord
  2
YARDIMCI_GEOMETRI
 70
     0
 62
    -6
  6
Continuous
290
     0
370
    -3
390
F
  0
LAYER
  5
75
330
2
100
AcDbSymbolTableRecord
100
AcDbLayerTableRecord
  2
SAYFA_CERCEVESI
 70
     0
 62
     7
  6
Continuous
370
    25
390
F
  0
LAYER
  5
76
330
2
100
AcDbSymbolTableRecord
100
AcDbLayerTableRecord
  2
ANTET
 70
     0
 62
     7
  6
Continuous
370
    -3
390
F
  0
LAYER
  5
77
330
2
100
AcDbSymbolTableRecord
100
AcDbLayerTableRecord
  2
OLCU
 70
     0
 62
   150
  6
Continuous
370
    -3
390
F
  0
LAYER
  5
78
330
2
100
AcDbSymbolTableRecord
100
AcDbLayerTableRecord
  2
METIN
 70
     0
 62
    96
  6
Continuous
370
    -3
390
F
  0
LAYER
  5
79
330
2
100
AcDbSymbolTableRecord
100
AcDbLayerTableRecord
  2
BALON
 70
     0
 62
     5
  6
Continuous
370
    -3
390
F
  0
LAYER
  5
7A
330
2
100
AcDbSymbolTableRecord
100
AcDbLayerTableRecord
  2
VURGU
 70
     0
 62
     7
  6
Continuous
370
    -3
390
F
  0
LAYER
  5
7B
330
2
100
AcDbSymbolTableRecord
100
AcDbLayerTableRecord
  2
SILIK
 70
     0
 62
     7
  6
Continuous
370
    -3
390
F
  0
LAYER
  5
7C
330
2
100
AcDbSymbolTableRecord
100
AcDbLayerTableRecord
  2
MODEL
 70
     0
 62
     7
  6
Continuous
370
    -3
390
F
  0
LAYER
  5
7D
330
2
100
AcDbSymbolTableRecord
100
AcDbLayerTableRecord
  2
DETAYLANDıRMA
 70
     0
 62
   190
  6
Continuous
370
    -3
390
F
  0
LAYER
  5
7E
330
2
100
AcDbSymbolTableRecord
100
AcDbLayerTableRecord
  2
TOLERANS
 70
     0
 62
   230
  6
Continuous
370
    -3
390
F
  0
LAYER
  5
7F
330
2
100
AcDbSymbolTableRecord
100
AcDbLayerTableRecord
  2
MERKEZ_CIZGILERI
 70
     0
 62
    30
  6
Continuous
370
    -3
390
F
  0
LAYER
  5
80
330
2
100
AcDbSymbolTableRecord
100
AcDbLayerTableRecord
  2
KESIT-DETAY_CIZGILERI
 70
     0
 62
     7
  6
Continuous
370
    -3
390
F
  0
LAYER
  5
81
330
2
100
AcDbSymbolTableRecord
100
AcDbLayerTableRecord
  2
\U+041E\U+0421\U+0415\U+0412\U+042B\U+0415
 70
     0
 62
     7
  6
Continuous
370
    -3
390
F
  0
LAYER
  5
82
330
2
100
AcDbSymbolTableRecord
100
AcDbLayerTableRecord
  2
\U+0412\U+041E\U+0414\U+042F\U+041D\U+042B\U+0415_\U+0417\U+041D\U+0410\U+041A\U+0418
 70
     0
 62
    11
  6
Continuous
370
    -3
390
F
  0
ENDTAB
  0
TABLE
  2
STYLE
  5
3
330
0
100
AcDbSymbolTable
 70
     1
  0
STYLE
  5
11
330
3
100
AcDbSymbolTableRecord
100
AcDbTextStyleTableRecord
  2
Standard
 70
     0
 40
0.0
 41
1.0
 50
0.0
 71
     0
 42
3.5
  3
txt
  4

  0
ENDTAB
  0
TABLE
  2
VIEW
  5
6
330
0
100
AcDbSymbolTable
 70
     0
  0
ENDTAB
  0
TABLE
  2
UCS
  5
7
330
0
100
AcDbSymbolTable
 70
     0
  0
ENDTAB
  0
TABLE
  2
APPID
  5
9
330
0
100
AcDbSymbolTable
 70
     1
  0
APPID
  5
12
330
9
100
AcDbSymbolTableRecord
100
AcDbRegAppTableRecord
  2
ACAD
 70
     0
  0
ENDTAB
  0
TABLE
  2
DIMSTYLE
  5
A
330
0
100
AcDbSymbolTable
 70
     1
100
AcDbDimStyleTable
  0
DIMSTYLE
105
27
330
A
100
AcDbSymbolTableRecord
100
AcDbDimStyleTableRecord
  2
ISO-25
 70
     0
 41
2.5
 42
0.625
 43
3.75
 44
1.25
 73
     0
 74
     0
 77
     1
 78
     8
140
2.5
141
2.5
143
0.0393700787
147
0.625
171
     3
172
     1
178
     0
271
     2
272
     2
274
     3
278
    44
283
     0
284
     8
340
11
  0
ENDTAB
  0
TABLE
  2
BLOCK_RECORD
  5
1
330
0
100
AcDbSymbolTable
 70
     3
  0
BLOCK_RECORD
  5
1F
330
1
100
AcDbSymbolTableRecord
100
AcDbBlockTableRecord
  2
*Model_Space
340
22
  0
BLOCK_RECORD
  5
1B
330
1
100
AcDbSymbolTableRecord
100
AcDbBlockTableRecord
  2
*Paper_Space
340
1E
  0
BLOCK_RECORD
  5
23
330
1
100
AcDbSymbolTableRecord
100
AcDbBlockTableRecord
  2
*Paper_Space0
340
26
  0
BLOCK_RECORD
  5
A7
330
1
100
AcDbSymbolTableRecord
100
AcDbBlockTableRecord
  2
SW_CENTERMARKSYMBOL_0
340
0
102
{BLKREFS
331
B2
102
}
  0
BLOCK_RECORD
  5
C7
330
1
100
AcDbSymbolTableRecord
100
AcDbBlockTableRecord
  2
SW_CENTERMARKSYMBOL_1
340
0
102
{BLKREFS
331
D2
102
}
  0
ENDTAB
  0
ENDSEC
  0
SECTION
  2
BLOCKS
  0
BLOCK
  5
20
330
1F
100
AcDbEntity
  8
0
100
AcDbBlockBegin
  2
*Model_Space
 70
     0
 10
0.0
 20
0.0
 30
0.0
  3
*Model_Space
  1

  0
ENDBLK
  5
21
330
1F
100
AcDbEntity
  8
0
100
AcDbBlockEnd
  0
BLOCK
  5
1C
330
1B
100
AcDbEntity
 67
     1
  8
0
100
AcDbBlockBegin
  2
*Paper_Space
 70
     0
 10
0.0
 20
0.0
 30
0.0
  3
*Paper_Space
  1

  0
ENDBLK
  5
1D
330
1B
100
AcDbEntity
 67
     1
  8
0
100
AcDbBlockEnd
  0
BLOCK
  5
24
330
23
100
AcDbEntity
  8
0
100
AcDbBlockBegin
  2
*Paper_Space0
 70
     0
 10
0.0
 20
0.0
 30
0.0
  3
*Paper_Space0
  1

  0
ENDBLK
  5
25
330
23
100
AcDbEntity
  8
0
100
AcDbBlockEnd
  0
BLOCK
  5
A8
330
A7
100
AcDbEntity
  8
0
100
AcDbBlockBegin
  2
SW_CENTERMARKSYMBOL_0
 70
     0
 10
0.0
 20
0.0
 30
0.0
  3
SW_CENTERMARKSYMBOL_0
  1

  0
LINE
  5
AA
330
A7
100
AcDbEntity
  8
FORMAT
 62
     0
100
AcDbLine
 10
0.0
 20
0.0
 30
0.0
 11
0.0
 21
2.5
 31
0.0
  0
LINE
  5
AB
330
A7
100
AcDbEntity
  8
FORMAT
 62
     0
100
AcDbLine
 10
0.0
 20
0.0
 30
0.0
 11
-2.5
 21
0.0
 31
0.0
  0
LINE
  5
AC
330
A7
100
AcDbEntity
  8
FORMAT
 62
     0
100
AcDbLine
 10
0.0
 20
0.0
 30
0.0
 11
0.0
 21
-2.5
 31
0.0
  0
LINE
  5
AD
330
A7
100
AcDbEntity
  8
FORMAT
 62
     0
100
AcDbLine
 10
0.0
 20
0.0
 30
0.0
 11
2.5
 21
0.0
 31
0.0
  0
LINE
  5
AE
330
A7
100
AcDbEntity
  8
FORMAT
 62
     0
100
AcDbLine
 10
0.0
 20
5.0
 30
0.0
 11
0.0
 21
202.5
 31
0.0
  0
LINE
  5
AF
330
A7
100
AcDbEntity
  8
FORMAT
 62
     0
100
AcDbLine
 10
-5.0
 20
0.0
 30
0.0
 11
-202.5
 21
0.0
 31
0.0
  0
LINE
  5
B0
330
A7
100
AcDbEntity
  8
FORMAT
 62
     0
100
AcDbLine
 10
0.0
 20
-5.0
 30
0.0
 11
0.0
 21
-202.5
 31
0.0
  0
LINE
  5
B1
330
A7
100
AcDbEntity
  8
FORMAT
 62
     0
100
AcDbLine
 10
5.0
 20
0.0
 30
0.0
 11
202.5
 21
0.0
 31
0.0
  0
ENDBLK
  5
A9
330
A7
100
AcDbEntity
  8
0
100
AcDbBlockEnd
  0
BLOCK
  5
C8
330
C7
100
AcDbEntity
  8
0
100
AcDbBlockBegin
  2
SW_CENTERMARKSYMBOL_1
 70
     0
 10
0.0
 20
0.0
 30
0.0
  3
SW_CENTERMARKSYMBOL_1
  1

  0
LINE
  5
CA
330
C7
100
AcDbEntity
  8
FORMAT
 62
     0
100
AcDbLine
 10
0.0
 20
0.0
 30
0.0
 11
0.0
 21
2.5
 31
0.0
  0
LINE
  5
CB
330
C7
100
AcDbEntity
  8
FORMAT
 62
     0
100
AcDbLine
 10
0.0
 20
0.0
 30
0.0
 11
-2.5
 21
0.0
 31
0.0
  0
LINE
  5
CC
330
C7
100
AcDbEntity
  8
FORMAT
 62
     0
100
AcDbLine
 10
0.0
 20
0.0
 30
0.0
 11
0.0
 21
-2.5
 31
0.0
  0
LINE
  5
CD
330
C7
100
AcDbEntity
  8
FORMAT
 62
     0
100
AcDbLine
 10
0.0
 20
0.0
 30
0.0
 11
2.5
 21
0.0
 31
0.0
  0
LINE
  5
CE
330
C7
100
AcDbEntity
  8
FORMAT
 62
     0
100
AcDbLine
 10
0.0
 20
5.0
 30
0.0
 11
0.0
 21
202.5
 31
0.0
  0
LINE
  5
CF
330
C7
100
AcDbEntity
  8
FORMAT
 62
     0
100
AcDbLine
 10
-5.0
 20
0.0
 30
0.0
 11
-202.5
 21
0.0
 31
0.0
  0
LINE
  5
D0
330
C7
100
AcDbEntity
  8
FORMAT
 62
     0
100
AcDbLine
 10
0.0
 20
-5.0
 30
0.0
 11
0.0
 21
-202.5
 31
0.0
  0
LINE
  5
D1
330
C7
100
AcDbEntity
  8
FORMAT
 62
     0
100
AcDbLine
 10
5.0
 20
0.0
 30
0.0
 11
202.5
 21
0.0
 31
0.0
  0
ENDBLK
  5
C9
330
C7
100
AcDbEntity
  8
0
100
AcDbBlockEnd
  0
ENDSEC
  0
SECTION
  2
ENTITIES
  0
LINE
  5
83
330
1F
100
AcDbEntity
  8
0
  6
Continuous
 62
     7
370
    25
100
AcDbLine
 10
-76.9588055423
 20
72.5355941625
 30
0.0
 11
-76.9588055423
 21
-161.6216998725
 31
0.0
  0
LINE
  5
84
330
1F
100
AcDbEntity
  8
0
  6
Continuous
 62
     7
370
    25
100
AcDbLine
 10
323.0412004182
 20
-161.6216998725
 30
0.0
 11
323.0412004182
 21
72.5355941625
 31
0.0
  0
ARC
  5
85
330
1F
100
AcDbEntity
  8
0
  6
Continuous
 62
     7
370
    25
100
AcDbCircle
 10
323.041197438
 20
72.5355876529
 30
0.0
 40
400.0000000000001
100
AcDbArc
 50
135.0
 51
180.0
  0
LINE
  5
86
330
1F
100
AcDbEntity
  8
0
  6
Continuous
 62
     7
370
    25
100
AcDbLine
 10
212.6198408792
 20
527.7996558518
 30
0.0
 11
40.1984823534
 21
355.3783196778
 31
0.0
  0
LINE
  5
87
330
1F
100
AcDbEntity
  8
0
  6
Continuous
 62
     7
370
    25
100
AcDbLine
 10
323.0412004182
 20
72.5355941625
 30
0.0
 11
495.4625514934
 21
244.9569303365
 31
0.0
  0
LINE
  5
88
330
1F
100
AcDbEntity
  8
0
  6
Continuous
 62
     7
370
    25
100
AcDbLine
 10
123.041197438
 20
-161.6216998725
 30
0.0
 11
323.0412004182
 21
-161.6216998725
 31
0.0
  0
LINE
  5
89
330
1F
100
AcDbEntity
  8
0
  6
Continuous
 62
     7
370
    25
100
AcDbLine
 10
-76.9588055423
 20
-161.6216998725
 30
0.0
 11
123.041197438
 21
-161.6216998725
 31
0.0
  0
LWPOLYLINE
  5
8A
330
1F
100
AcDbEntity
  8
0
  6
Continuous
 62
     7
370
    25
100
AcDbPolyline
 90
       39
 70
   128
 43
0.0
 10
354.0412036368
 20
386.378278193
 10
359.9633125255
 20
380.4561991067
 10
365.8750353047
 20
374.5444912286
 10
371.7659858653
 20
368.6535257669
 10
377.6258675048
 20
362.7936143251
 10
383.4443537185
 20
356.9751281114
 10
389.2112521121
 20
351.2082595201
 10
394.9164596984
 20
345.5030221314
 10
400.549962897
 20
339.8695487351
 10
406.1018673369
 20
334.3176144929
 10
411.5624574611
 20
328.8570541711
 10
416.9221071193
 20
323.4974045129
 10
422.1714583823
 20
318.2480532498
 10
427.3012725303
 20
313.1182092996
 10
432.3025790641
 20
308.1169027658
 10
437.1665862987
 20
303.2529253335
 10
441.8847707698
 20
298.5347408624
 10
446.4488176295
 20
293.9706642003
 10
450.8507696578
 20
289.568712172
 10
455.0828782508
 20
285.336603579
 10
459.1377524325
 20
281.2817591996
 10
463.0082396457
 20
277.4112719865
 10
466.6875449607
 20
273.7319666715
 10
470.169231076
 20
270.2502507539
 10
473.4471885154
 20
266.9722933145
 10
476.5156952331
 20
263.9038163991
 10
479.369297404
 20
261.0501844258
 10
482.003077645
 20
258.4164339871
 10
484.4123271892
 20
256.0071546407
 10
486.5928737113
 20
253.8266081185
 10
488.5409025142
 20
251.878609118
 10
490.2529565284
 20
250.1665551038
 10
491.7260555217
 20
248.6934561105
 10
492.957606692
 20
247.4619049401
 10
493.9454344699
 20
246.4740771623
 10
494.6878401229
 20
245.7316715093
 10
495.1834825465
 20
245.2359992833
 10
495.4315272758
 20
244.9879545541
 10
495.4625514934
 20
244.9569303365
  0
LWPOLYLINE
  5
8B
330
1F
100
AcDbEntity
  8
0
  6
Continuous
 62
     7
370
    25
100
AcDbPolyline
 90
       39
 70
   128
 43
0.0
 10
212.6198408792
 20
527.7996558518
 10
212.6508576462
 20
527.7686614366
 10
212.8989023754
 20
527.520586905
 10
213.3945597002
 20
527.0249146791
 10
214.1369653532
 20
526.2825388284
 10
215.1248005816
 20
525.2947110505
 10
216.356351752
 20
524.0631598802
 10
217.8294432947
 20
522.5900310845
 10
219.5414973089
 20
520.8780068727
 10
221.48950376
 20
518.9300078721
 10
223.6700577328
 20
516.7494315476
 10
226.0793296287
 20
514.3401522012
 10
228.7130875179
 20
511.7064017625
 10
231.5667120406
 20
508.8527697892
 10
234.6351964066
 20
505.7843226762
 10
237.9131612966
 20
502.5063056321
 10
241.3948548624
 20
499.0246195169
 10
245.074167628
 20
495.3453440042
 10
248.9446548411
 20
491.474856791
 10
252.9994992206
 20
487.4200124116
 10
257.2316227147
 20
483.1879038186
 10
261.633574743
 20
478.785921988
 10
266.1976365039
 20
474.2218751283
 10
270.9158060739
 20
469.5036906571
 10
275.7798133084
 20
464.6397132249
 10
280.7811198422
 20
459.6384066911
 10
285.9109339902
 20
454.5085329385
 10
291.1602852532
 20
449.2592114778
 10
296.5199498126
 20
443.8995618196
 10
301.9805250356
 20
438.4390014978
 10
307.5324294755
 20
432.8870672555
 10
313.1659326741
 20
427.2535938592
 10
318.8711402604
 20
421.5483564706
 10
324.638038654
 20
415.7814282746
 10
330.4565397689
 20
409.962942061
 10
336.3164065072
 20
404.1030902238
 10
342.2073570678
 20
398.2121247621
 10
348.119079847
 20
392.300416884
 10
354.0412036368
 20
386.378278193
  0
LINE
  5
8C
330
1F
100
AcDbEntity
  8
0
  6
Continuous
 62
     1
370
    25
100
AcDbLine
 10
-76.9588055423
 20
72.5355941625
 30
0.0
 11
323.0412004182
 21
72.5355941625
 31
0.0
  0
LWPOLYLINE
  5
8D
330
1F
100
AcDbEntity
  8
0
  6
Continuous
 62
     1
370
    25
100
AcDbPolyline
 90
       77
 70
   128
 43
0.0
 10
40.1984823534
 20
355.3783196778
 10
40.3225345203
 20
355.2542228074
 10
40.6944675037
 20
354.882289824
 10
41.3136331031
 20
354.2631763787
 10
42.1789435336
 20
353.3978361459
 10
43.2888788769
 20
352.2878784509
 10
44.6414945313
 20
350.935270247
 10
46.2344212124
 20
349.3423361154
 10
48.0648575017
 20
347.511937079
 10
50.129592199
 20
345.4471725793
 10
52.4250043222
 20
343.151797709
 10
54.9470705578
 20
340.62968677
 10
57.6913652608
 20
337.8854293199
 10
60.6530679056
 20
334.9237043233
 10
63.8269891629
 20
331.7497867913
 10
67.2075597236
 20
328.3692199559
 10
70.7888489255
 20
324.7879344792
 10
74.5645722041
 20
321.0122186513
 10
78.5281097183
 20
317.0486885877
 10
82.6725026259
 20
312.9042882295
 10
86.9904828855
 20
308.5862893434
 10
91.4744769821
 20
304.1023213239
 10
96.1166152397
 20
299.4601625772
 10
100.9087541738
 20
294.6680385442
 10
105.8424895296
 20
289.7342938752
 10
110.9091628009
 20
284.6676308484
 10
116.0998877736
 20
279.4769007535
 10
121.4055563455
 20
274.1712231011
 10
126.8168613447
 20
268.7599260182
 10
132.3243098
 20
263.2524866433
 10
137.9182383084
 20
257.6585609288
 10
143.5888351539
 20
251.9879538388
 10
149.3261510173
 20
246.250619349
 10
155.1201229581
 20
240.4566604466
 10
160.960580934
 20
234.6162099214
 10
166.8372859845
 20
228.7394899697
 10
172.7399190554
 20
222.8368718
 10
178.6581350157
 20
216.9186372132
 10
184.5815477559
 20
210.9952468247
 10
190.4997599909
 20
205.077012238
 10
196.4024005124
 20
199.1743940682
 10
202.2790981123
 20
193.2976741166
 10
208.1195635387
 20
187.4572235913
 10
213.9135298917
 20
181.663264689
 10
219.6508494803
 20
175.9259301992
 10
225.3214416692
 20
170.2553529115
 10
230.9153748342
 20
164.6613973947
 10
236.4228216598
 20
159.1539580197
 10
241.8341261932
 20
153.7426609368
 10
247.139796395
 20
148.4369832845
 10
252.3305264899
 20
143.2462531896
 10
257.3971895167
 20
138.1795901628
 10
262.3309341857
 20
133.2458454938
 10
267.1230731198
 20
128.4537214608
 10
271.7652020642
 20
123.8115925164
 10
276.249199886
 20
119.3275946946
 10
280.567183871
 20
115.0095958085
 10
284.711569328
 20
110.8652252526
 10
288.6751142928
 20
106.9016653867
 10
292.4508301208
 20
103.1259495587
 10
296.0321155974
 20
99.5446640821
 10
299.412697334
 20
96.1640972467
 10
302.586614866
 20
92.9901797147
 10
305.5483249614
 20
90.0284547181
 10
308.2926122138
 20
87.2841674657
 10
310.8146784493
 20
84.7621012302
 10
313.1100980231
 20
82.4666965575
 10
315.1748327205
 20
80.4019618602
 10
317.0052615592
 20
78.5715181203
 10
318.5981807897
 20
76.9785988898
 10
319.9508038947
 20
75.6259906859
 10
321.0607317874
 20
74.5160478921
 10
321.9260422179
 20
73.6507374616
 10
322.5452152678
 20
73.0315793128
 10
322.9171482512
 20
72.6596314282
 10
323.0412004182
 20
72.5355941625
 10
323.0412004182
 20
72.5355941625
  0
LINE
  5
8E
330
1F
100
AcDbEntity
  8
0
  6
Continuous
 62
     7
370
    25
100
AcDbLine
 10
-739.3104640141
 20
386.378278193
 30
0.0
 11
-739.3104640141
 21
213.956942019
 31
0.0
  0
LINE
  5
8F
330
1F
100
AcDbEntity
  8
0
  6
Continuous
 62
     7
370
    25
100
AcDbLine
 10
-339.3104580537
 20
213.956942019
 30
0.0
 11
-339.3104580537
 21
386.378278193
 31
0.0
  0
LINE
  5
90
330
1F
100
AcDbEntity
  8
0
  6
Continuous
 62
     7
370
    25
100
AcDbLine
 10
-739.3104640141
 20
213.956942019
 30
0.0
 11
-739.3104640141
 21
72.5355941625
 31
0.0
  0
LINE
  5
91
330
1F
100
AcDbEntity
  8
0
  6
Continuous
 62
     7
370
    25
100
AcDbLine
 10
-339.3104580537
 20
72.5355941625
 30
0.0
 11
-339.3104580537
 21
213.956942019
 31
0.0
  0
LINE
  5
92
330
1F
100
AcDbEntity
  8
0
  6
Continuous
 62
     7
370
    25
100
AcDbLine
 10
-739.3104640141
 20
72.5355941625
 30
0.0
 11
-739.3104640141
 21
-161.6216998725
 31
0.0
  0
LINE
  5
93
330
1F
100
AcDbEntity
  8
0
  6
Continuous
 62
     7
370
    25
100
AcDbLine
 10
-339.3104580537
 20
-161.6216998725
 30
0.0
 11
-339.3104580537
 21
72.5355941625
 31
0.0
  0
LWPOLYLINE
  5
94
330
1F
100
AcDbEntity
  8
0
  6
Continuous
 62
     7
370
    25
100
AcDbPolyline
 90
      151
 70
   128
 43
0.0
 10
-739.3104640141
 20
386.378278193
 10
-739.1350326434
 20
380.4561991067
 10
-738.6090365544
 20
374.5444912286
 10
-737.7333996192
 20
368.6535257669
 10
-736.5096715584
 20
362.7936143251
 10
-734.9399832383
 20
356.9751281114
 10
-733.0270913735
 20
351.2082595201
 10
-730.7743636265
 20
345.5030221314
 10
-728.1857339039
 20
339.8695487351
 10
-725.265761961
 20
334.3176144929
 10
-722.0195588961
 20
328.8570541711
 10
-718.4528169528
 20
323.4974045129
 10
-714.5717946187
 20
318.2480532498
 10
-710.3833166257
 20
313.1182092996
 10
-705.894714345
 20
308.1169027658
 10
-701.1138555899
 20
303.2529253335
 10
-696.0491595164
 20
298.5347408624
 10
-690.7094774142
 20
293.9706642003
 10
-685.1041821137
 20
289.568712172
 10
-679.2431232825
 20
285.336603579
 10
-673.1365827218
 20
281.2817591996
 10
-666.7952594653
 20
277.4112719865
 10
-660.2302846804
 20
273.7319666715
 10
-653.4531769648
 20
270.2502507539
 10
-646.4758199945
 20
266.9722933145
 10
-639.310462524
 20
263.9038163991
 10
-631.9696662322
 20
261.0501844258
 10
-624.4663206235
 20
258.4164339871
 10
-616.8135759726
 20
256.0071546407
 10
-609.024873127
 20
253.8266081185
 10
-601.1138615504
 20
251.878609118
 10
-593.0944253996
 20
250.1665551038
 10
-584.9806350961
 20
248.6934561105
 10
-576.7867249742
 20
247.4619049401
 10
-568.5270672038
 20
246.4740771623
 10
-560.2161531642
 20
245.7316715093
 10
-551.8685645729
 20
245.2359992833
 10
-543.4989450805
 20
244.9879545541
 10
-535.1219769873
 20
244.9879545541
 10
-526.7523574948
 20
245.2359992833
 10
-518.4047689036
 20
245.7316715093
 10
-510.0938548639
 20
246.4740771623
 10
-501.8341970935
 20
247.4619049401
 10
-493.6402869716
 20
248.6934561105
 10
-485.5264966682
 20
250.1665551038
 10
-477.5070605174
 20
251.878609118
 10
-469.5960489407
 20
253.8266081185
 10
-461.8073460951
 20
256.0071546407
 10
-454.1546014443
 20
258.4164339871
 10
-446.6512558356
 20
261.0501844258
 10
-439.3104595438
 20
263.9038163991
 10
-432.1451020733
 20
266.9722933145
 10
-425.1677451029
 20
270.2502507539
 10
-418.3906373873
 20
273.7319666715
 10
-411.8256626025
 20
277.4112719865
 10
-405.484339346
 20
281.2817591996
 10
-399.3777987853
 20
285.336603579
 10
-393.5167399541
 20
289.568712172
 10
-387.9114446536
 20
293.9706642003
 10
-382.5717625514
 20
298.5347408624
 10
-377.5070664778
 20
303.2529253335
 10
-372.7262077227
 20
308.1169027658
 10
-368.2376054421
 20
313.1182092996
 10
-364.0491274491
 20
318.2480532498
 10
-360.168105115
 20
323.4974045129
 10
-356.6013631716
 20
328.8570541711
 10
-353.3551601067
 20
334.3176144929
 10
-350.4351881638
 20
339.8695487351
 10
-347.8465584412
 20
345.5030221314
 10
-345.5938306943
 20
351.2082595201
 10
-343.6809388295
 20
356.9751281114
 10
-342.1112505093
 20
362.7936143251
 10
-340.8875224486
 20
368.6535257669
 10
-340.0118855134
 20
374.5444912286
 10
-339.4858894244
 20
380.4561991067
 10
-339.3104580537
 20
386.378278193
 10
-339.4858894244
 20
392.300416884
 10
-340.0118855134
 20
398.2121247621
 10
-340.8875224486
 20
404.1030902238
 10
-342.1112505093
 20
409.962942061
 10
-343.6809388295
 20
415.7814282746
 10
-345.5938306943
 20
421.5483564706
 10
-347.8465584412
 20
427.2535938592
 10
-350.4351881638
 20
432.8870672555
 10
-353.3551601067
 20
438.4390014978
 10
-356.6013631716
 20
443.8995618196
 10
-360.168105115
 20
449.2592114778
 10
-364.0491274491
 20
454.5085329385
 10
-368.2376054421
 20
459.6384066911
 10
-372.7262077227
 20
464.6397132249
 10
-377.5070664778
 20
469.5036906571
 10
-382.5717625514
 20
474.2218751283
 10
-387.9114446536
 20
478.785921988
 10
-393.5167399541
 20
483.1879038186
 10
-399.3777987853
 20
487.4200124116
 10
-405.484339346
 20
491.474856791
 10
-411.8256626025
 20
495.3453440042
 10
-418.3906373873
 20
499.0246195169
 10
-425.1677451029
 20
502.5063056321
 10
-432.1451020733
 20
505.7843226762
 10
-439.3104595438
 20
508.8527697892
 10
-446.6512558356
 20
511.7064017625
 10
-454.1546014443
 20
514.3401522012
 10
-461.8073460951
 20
516.7494315476
 10
-469.5960489407
 20
518.9300078721
 10
-477.5070605174
 20
520.8780068727
 10
-485.5264966682
 20
522.5900310845
 10
-493.6402869716
 20
524.0631598802
 10
-501.8341970935
 20
525.2947110505
 10
-510.0938548639
 20
526.2825388284
 10
-518.4047689036
 20
527.0249146791
 10
-526.7523574948
 20
527.520586905
 10
-535.1219769873
 20
527.7686614366
 10
-543.4989450805
 20
527.7686614366
 10
-551.8685645729
 20
527.520586905
 10
-560.2161531642
 20
527.0249146791
 10
-568.5270672038
 20
526.2825388284
 10
-576.7867249742
 20
525.2947110505
 10
-584.9806350961
 20
524.0631598802
 10
-593.0944253996
 20
522.5900310845
 10
-601.1138615504
 20
520.8780068727
 10
-609.024873127
 20
518.9300078721
 10
-616.8135759726
 20
516.7494315476
 10
-624.4663206235
 20
514.3401522012
 10
-631.9696662322
 20
511.7064017625
 10
-639.310462524
 20
508.8527697892
 10
-646.4758199945
 20
505.7843226762
 10
-653.4531769648
 20
502.5063056321
 10
-660.2302846804
 20
499.0246195169
 10
-666.7952594653
 20
495.3453440042
 10
-673.1365827218
 20
491.474856791
 10
-679.2431232825
 20
487.4200124116
 10
-685.1041821137
 20
483.1879038186
 10
-690.7094774142
 20
478.785921988
 10
-696.0491595164
 20
474.2218751283
 10
-701.1138555899
 20
469.5036906571
 10
-705.894714345
 20
464.6397132249
 10
-710.3833166257
 20
459.6384066911
 10
-714.5717946187
 20
454.5085329385
 10
-718.4528169528
 20
449.2592114778
 10
-722.0195588961
 20
443.8995618196
 10
-725.265761961
 20
438.4390014978
 10
-728.1857339039
 20
432.8870672555
 10
-730.7743636265
 20
427.2535938592
 10
-733.0270913735
 20
421.5483564706
 10
-734.9399832383
 20
415.7814282746
 10
-736.5096715584
 20
409.962942061
 10
-737.7333996192
 20
404.1030902238
 10
-738.6090365544
 20
398.2121247621
 10
-739.1350326434
 20
392.300416884
 10
-739.3104640141
 20
386.378278193
  0
LWPOLYLINE
  5
95
330
1F
100
AcDbEntity
  8
0
  6
Continuous
 62
     7
370
    25
100
AcDbPolyline
 90
      142
 70
   128
 43
0.0
 10
-715.6104651585
 20
386.378278193
 10
-715.4354510203
 20
391.9316429467
 10
-714.9107513323
 20
397.4739808412
 10
-714.0374240771
 20
402.994265017
 10
-712.8171828881
 20
408.4815282197
 10
-711.2524715558
 20
413.9249224038
 10
-709.3463746205
 20
419.3136591287
 10
-707.1026918784
 20
424.6370095582
 10
-704.5258787766
 20
429.8843640657
 10
-701.6210315123
 20
435.0453514428
 10
-698.3939466372
 20
440.1097196908
 10
-694.8510018483
 20
445.0674552293
 10
-690.9992602959
 20
449.9086040826
 10
-686.8463513747
 20
454.6236295075
 10
-682.4005154267
 20
459.2031735749
 10
-677.6705888405
 20
463.6381167741
 10
-672.6659742489
 20
467.9196972222
 10
-667.3965809241
 20
472.0393914552
 10
-661.8728843823
 20
475.9889740319
 10
-656.1058593288
 20
479.760636744
 10
-650.1069424048
 20
483.3469290109
 10
-643.8880470887
 20
486.7406982751
 10
-637.4615264431
 20
489.9352092118
 10
-630.8401358619
 20
492.9240841241
 10
-624.03702562
 20
495.701422152
 10
-617.0656961694
 20
498.2617396684
 10
-609.9399832383
 20
500.5999106736
 10
-602.6740503803
 20
502.7113456101
 10
-595.2823144689
 20
504.5917529435
 10
-587.7794494227
 20
506.2374967904
 10
-580.1803526774
 20
507.6452392907
 10
-572.5001153842
 20
508.8122386308
 10
-564.7539814308
 20
509.7361702294
 10
-556.9573306784
 20
510.4151267381
 10
-549.1256454334
 20
510.8478564591
 10
-541.2744727291
 20
511.033465323
 10
-533.4194005773
 20
510.9715957017
 10
-525.5760244399
 20
510.6623668046
 10
-517.7599174276
 20
510.1063746781
 10
-509.9865963057
 20
509.3046922059
 10
-502.2714940205
 20
508.258988318
 10
-494.6299326912
 20
506.9712895722
 10
-487.0770779744
 20
505.4441589685
 10
-479.6279241636
 20
503.6806363435
 10
-472.2972718373
 20
501.6842383714
 10
-465.0996608034
 20
499.4588989587
 10
-458.0493924513
 20
497.0090288491
 10
-451.1604589716
 20
494.3395752282
 10
-444.44653963
 20
491.4557237001
 10
-437.9209635153
 20
488.3632559152
 10
-431.5966946378
 20
485.068311152
 10
-425.4862723246
 20
481.5774459214
 10
-419.6018410221
 20
477.8975147576
 10
-413.9550683394
 20
474.0359086366
 10
-408.5571972027
 20
470.0003165574
 10
-403.4189191952
 20
465.7986063333
 10
-398.5504267111
 20
461.4393014283
 10
-393.9614204064
 20
456.9309253068
 10
-389.6609750882
 20
452.2824782701
 10
-385.657644023
 20
447.503199038
 10
-381.9593844309
 20
442.6025647492
 10
-378.5735425845
 20
437.5902909608
 10
-375.506809105
 20
432.4763316484
 10
-372.7652934685
 20
427.2708196015
 10
-370.3544495001
 20
421.9841856332
 10
-368.2790455714
 20
416.6268009515
 10
-366.5432093039
 20
411.2093943925
 10
-365.150382866
 20
405.7426947923
 10
-364.1033527747
 20
400.2375501962
 10
-363.4041604891
 20
394.7048682542
 10
-363.0542216197
 20
389.1556758256
 10
-363.0542216197
 20
383.600940165
 10
-363.4041604891
 20
378.0517477365
 10
-364.1033527747
 20
372.5190657945
 10
-365.150382866
 20
367.0139211984
 10
-366.5432093039
 20
361.5472215982
 10
-368.2790455714
 20
356.1297554345
 10
-370.3544495001
 20
350.7724303575
 10
-372.7652934685
 20
345.4857367845
 10
-375.506809105
 20
340.2802843423
 10
-378.5735425845
 20
335.1663250299
 10
-381.9593844309
 20
330.1540512414
 10
-385.657644023
 20
325.2534169526
 10
-389.6609750882
 20
320.4741079183
 10
-393.9614204064
 20
315.8256906838
 10
-398.5504267111
 20
311.3173145623
 10
-403.4189191952
 20
306.9579798551
 10
-408.5571972027
 20
302.7562994332
 10
-413.9550683394
 20
298.7206775518
 10
-419.6018410221
 20
294.8590714307
 10
-425.4862723246
 20
291.1791700692
 10
-431.5966946378
 20
287.6883048387
 10
-437.9209635153
 20
284.3933600755
 10
-444.44653963
 20
281.3008922906
 10
-451.1604589716
 20
278.4170407624
 10
-458.0493924513
 20
275.7475573392
 10
-465.0996608034
 20
273.2976872296
 10
-472.2972718373
 20
271.0723478169
 10
-479.6279241636
 20
269.0759498448
 10
-487.0770779744
 20
267.3124272199
 10
-494.6299326912
 20
265.7852966161
 10
-502.2714940205
 20
264.4975978704
 10
-509.9865963057
 20
263.4518939824
 10
-517.7599174276
 20
262.6502413125
 10
-525.5760244399
 20
262.094249186
 10
-533.4194005773
 20
261.7849904866
 10
-541.2744727291
 20
261.7231208654
 10
-549.1256454334
 20
261.9087297292
 10
-556.9573306784
 20
262.3414594503
 10
-564.7539814308
 20
263.0204457612
 10
-572.5001153842
 20
263.9443773599
 10
-580.1803526774
 20
265.1113468976
 10
-587.7794494227
 20
266.5191192002
 10
-595.2823144689
 20
268.1648332448
 10
-602.6740503803
 20
270.0452703805
 10
-609.9399832383
 20
272.1566755147
 10
-617.0656961694
 20
274.49484652
 10
-624.03702562
 20
277.0551640363
 10
-630.8401358619
 20
279.8325020642
 10
-637.4615264431
 20
282.8214067788
 10
-643.8880470887
 20
286.0159177156
 10
-650.1069424048
 20
289.4096571775
 10
-656.1058593288
 20
292.9959494443
 10
-661.8728843823
 20
296.7676419587
 10
-667.3965809241
 20
300.7172245355
 10
-672.6659742489
 20
304.8368889661
 10
-677.6705888405
 20
309.1184694142
 10
-682.4005154267
 20
313.5534126134
 10
-686.8463513747
 20
318.1329566808
 10
-690.9992602959
 20
322.8480119081
 10
-694.8510018483
 20
327.6891607614
 10
-698.3939466372
 20
332.6468664975
 10
-701.6210315123
 20
337.7112347455
 10
-704.5258787766
 20
342.872251925
 10
-707.1026918784
 20
348.1196064324
 10
-709.3463746205
 20
353.442956862
 10
-711.2524715558
 20
358.8316339822
 10
-712.8171828881
 20
364.2750877709
 10
-714.0374240771
 20
369.7623509736
 10
-714.9107513323
 20
375.2826351495
 10
-715.4354510203
 20
380.8249730439
 10
-715.6104651585
 20
386.378278193
  0
LINE
  5
96
330
1F
100
AcDbEntity
  8
0
  6
Continuous
 62
     7
370
    25
100
AcDbLine
 10
-739.3104640141
 20
-161.6216998725
 30
0.0
 11
-339.3104580537
 21
-161.6216998725
 31
0.0
  0
LWPOLYLINE
  5
97
330
1F
100
AcDbEntity
  8
0
  6
Continuous
 62
     1
370
    25
100
AcDbPolyline
 90
       39
 70
   128
 43
0.0
 10
-539.3104610339
 20
72.5355941625
 10
-530.9353304401
 20
72.6596314282
 10
-522.5748923913
 20
73.0315793128
 10
-514.2438152179
 20
73.6507374616
 10
-505.9567113712
 20
74.5160478921
 10
-497.7281225219
 20
75.6259906859
 10
-489.5724823073
 20
76.9785988898
 10
-481.5041032925
 20
78.5715181203
 10
-473.537130405
 20
80.4019618602
 10
-465.6855521098
 20
82.4666965575
 10
-457.9631296292
 20
84.7621012302
 10
-450.3834230199
 20
87.2841674657
 10
-442.9597241178
 20
90.0284547181
 10
-435.7050565377
 20
92.9901797147
 10
-428.6321533218
 20
96.1640972467
 10
-421.7534122363
 20
99.5446640821
 10
-415.0809032217
 20
103.1259495587
 10
-408.6263385907
 20
106.9016653867
 10
-402.4010357752
 20
110.8652252526
 10
-396.4159247771
 20
115.0095958085
 10
-390.6814960137
 20
119.3275946946
 10
-385.2078077689
 20
123.8115925164
 10
-380.0044712916
 20
128.4537214608
 10
-375.0806209937
 20
133.2458454938
 10
-370.4448697463
 20
138.1795901628
 10
-366.1053833857
 20
143.2462531896
 10
-362.0697466031
 20
148.4369832845
 10
-358.3450523511
 20
153.7426609368
 10
-354.9378273383
 20
159.1539580197
 10
-351.8540618315
 20
164.6613973947
 10
-349.0991649523
 20
170.2553529115
 10
-346.6779497758
 20
175.9259301992
 10
-344.5946780339
 20
181.663264689
 10
-342.8530154124
 20
187.4572235913
 10
-341.4560017481
 20
193.2976741166
 10
-340.4060808316
 20
199.1743940682
 10
-339.7051153079
 20
205.077012238
 10
-339.3543270722
 20
210.9952468247
 10
-339.3104580537
 20
213.956942019
  0
LWPOLYLINE
  5
98
330
1F
100
AcDbEntity
  8
0
  6
Continuous
 62
     1
370
    25
100
AcDbPolyline
 90
       39
 70
   128
 43
0.0
 10
-739.3104640141
 20
213.956942019
 10
-739.2665949956
 20
210.9952468247
 10
-738.9158067599
 20
205.077012238
 10
-738.2148412362
 20
199.1743940682
 10
-737.1649203196
 20
193.2976741166
 10
-735.7679066554
 20
187.4572235913
 10
-734.0262440339
 20
181.663264689
 10
-731.942972292
 20
175.9259301992
 10
-729.5217571154
 20
170.2553529115
 10
-726.7668602362
 20
164.6613973947
 10
-723.6830947295
 20
159.1539580197
 10
-720.2758697167
 20
153.7426609368
 10
-716.5511754647
 20
148.4369832845
 10
-712.515538682
 20
143.2462531896
 10
-708.1760523215
 20
138.1795901628
 10
-703.5403010741
 20
133.2458454938
 10
-698.6164507762
 20
128.4537214608
 10
-693.4131142989
 20
123.8115925164
 10
-687.9394260541
 20
119.3275946946
 10
-682.2049972907
 20
115.0095958085
 10
-676.2198862925
 20
110.8652252526
 10
-669.9945834771
 20
106.9016653867
 10
-663.5400188461
 20
103.1259495587
 10
-656.8675098315
 20
99.5446640821
 10
-649.988768746
 20
96.1640972467
 10
-642.9158655301
 20
92.9901797147
 10
-635.6611979499
 20
90.0284547181
 10
-628.2374990478
 20
87.2841674657
 10
-620.6577924386
 20
84.7621012302
 10
-612.935369958
 20
82.4666965575
 10
-605.0837916628
 20
80.4019618602
 10
-597.1168187752
 20
78.5715181203
 10
-589.0484397605
 20
76.9785988898
 10
-580.8927995458
 20
75.6259906859
 10
-572.6642106965
 20
74.5160478921
 10
-564.3771068499
 20
73.6507374616
 10
-556.0460296765
 20
73.0315793128
 10
-547.6855916277
 20
72.6596314282
 10
-539.3104610339
 20
72.5355941625
  0
LWPOLYLINE
  5
99
330
1F
100
AcDbEntity
  8
0
  6
Continuous
 62
     1
370
    25
100
AcDbPolyline
 90
       38
 70
   128
 43
0.0
 10
-666.6569468871
 20
300.167610106
 10
-661.8728843823
 20
303.5676080556
 10
-656.1058593288
 20
307.33930057
 10
-650.1069424048
 20
310.9255630345
 10
-643.8880470887
 20
314.3193322988
 10
-637.4615264431
 20
317.5138432355
 10
-630.8401358619
 20
320.5027181478
 10
-624.03702562
 20
323.280085978
 10
-617.0656961694
 20
325.8404034944
 10
-609.9399832383
 20
328.1785744996
 10
-602.6740503803
 20
330.2899796338
 10
-595.2823144689
 20
332.1703869672
 10
-587.7794494227
 20
333.8161308141
 10
-580.1803526774
 20
335.2238733144
 10
-572.5001153842
 20
336.3908726544
 10
-564.7539814308
 20
337.3148042531
 10
-556.9573306784
 20
337.9937905641
 10
-549.1256454334
 20
338.4265202851
 10
-541.2744727291
 20
338.612129149
 10
-533.4194005773
 20
338.5502595277
 10
-525.5760244399
 20
338.2410008283
 10
-517.7599174276
 20
337.6850087018
 10
-509.9865963057
 20
336.8833560319
 10
-502.2714940205
 20
335.8376223416
 10
-494.6299326912
 20
334.5499235959
 10
-487.0770779744
 20
333.0228227944
 10
-479.6279241636
 20
331.2593001695
 10
-472.2972718373
 20
329.2629021974
 10
-465.0996608034
 20
327.0375627847
 10
-458.0493924513
 20
324.5876926751
 10
-451.1604589716
 20
321.9182092519
 10
-444.44653963
 20
319.0343577237
 10
-437.9209635153
 20
315.9418899388
 10
-431.5966946378
 20
312.6469451757
 10
-425.4862723246
 20
309.1560501428
 10
-419.6018410221
 20
305.4761785836
 10
-413.9550683394
 20
301.6145724626
 10
-411.9639751807
 20
300.167610106
  0
LINE
  5
9A
330
1F
100
AcDbEntity
  8
0
  6
Continuous
 62
     1
370
    25
100
AcDbLine
 10
-539.3104610339
 20
72.5355941625
 30
0.0
 11
-339.3104580537
 21
72.5355941625
 31
0.0
  0
LINE
  5
9B
330
1F
100
AcDbEntity
  8
0
  6
Continuous
 62
     1
370
    25
100
AcDbLine
 10
-739.3104640141
 20
72.5355941625
 30
0.0
 11
-539.3104610339
 21
72.5355941625
 31
0.0
  0
LINE
  5
9C
330
1F
100
AcDbEntity
  8
0
  6
Continuous
 62
     7
370
    25
100
AcDbLine
 10
354.0412036368
 20
1032.1902967082
 30
0.0
 11
181.6198413858
 21
1032.1902967082
 31
0.0
  0
LINE
  5
9D
330
1F
100
AcDbEntity
  8
0
  6
Continuous
 62
     7
370
    25
100
AcDbLine
 10
181.6198413858
 20
632.1902907477
 30
0.0
 11
354.0412036368
 21
632.1902907477
 31
0.0
  0
LINE
  5
9E
330
1F
100
AcDbEntity
  8
0
  6
Continuous
 62
     7
370
    25
100
AcDbLine
 10
181.6198413858
 20
1032.1902967082
 30
0.0
 11
123.041197438
 21
1032.1902967082
 31
0.0
  0
LINE
  5
9F
330
1F
100
AcDbEntity
  8
0
  6
Continuous
 62
     7
370
    25
100
AcDbLine
 10
123.041197438
 20
632.1902907477
 30
0.0
 11
181.6198413858
 21
632.1902907477
 31
0.0
  0
CIRCLE
  5
A0
330
1F
100
AcDbEntity
  8
0
  6
Continuous
 62
     7
370
    25
100
AcDbCircle
 10
123.041197438
 20
832.190293728
 30
0.0
 40
176.3
  0
CIRCLE
  5
A1
330
1F
100
AcDbEntity
  8
0
  6
Continuous
 62
     7
370
    25
100
AcDbCircle
 10
123.041197438
 20
832.190293728
 30
0.0
 40
200.0000000000001
  0
LWPOLYLINE
  5
A2
330
1F
100
AcDbEntity
  8
0
  6
Continuous
 62
     7
370
    25
100
AcDbPolyline
 90
       77
 70
   128
 43
0.0
 10
354.0412036368
 20
1032.1902967082
 10
359.9633125255
 20
1032.0148653375
 10
365.8750353047
 20
1031.4888692485
 10
371.7659858653
 20
1030.6132323133
 10
377.6258675048
 20
1029.3895042525
 10
383.4443537185
 20
1027.8198159324
 10
389.2112521121
 20
1025.9069240676
 10
394.9164596984
 20
1023.6541963206
 10
400.549962897
 20
1021.065566598
 10
406.1018673369
 20
1018.1455946551
 10
411.5624574611
 20
1014.8993915902
 10
416.9221071193
 20
1011.3326496469
 10
422.1714583823
 20
1007.4516273128
 10
427.3012725303
 20
1003.2631493197
 10
432.3025790641
 20
998.7745470391
 10
437.1665862987
 20
993.993688284
 10
441.8847707698
 20
988.9289922105
 10
446.4488176295
 20
983.5893101083
 10
450.8507696578
 20
977.9840148078
 10
455.0828782508
 20
972.1229559766
 10
459.1377524325
 20
966.0164154159
 10
463.0082396457
 20
959.6750921594
 10
466.6875449607
 20
953.1101173745
 10
470.169231076
 20
946.3330096589
 10
473.4471885154
 20
939.3556526886
 10
476.5156952331
 20
932.1902952181
 10
479.369297404
 20
924.8494989263
 10
482.003077645
 20
917.3461533175
 10
484.4123271892
 20
909.6934086667
 10
486.5928737113
 20
901.9047058211
 10
488.5409025142
 20
893.9936942445
 10
490.2529565284
 20
885.9742580937
 10
491.7260555217
 20
877.8604677902
 10
492.957606692
 20
869.6665576683
 10
493.9454344699
 20
861.4068998979
 10
494.6878401229
 20
853.0959858583
 10
495.1834825465
 20
844.748397267
 10
495.4315272758
 20
836.3787777746
 10
495.4315272758
 20
828.0018096814
 10
495.1834825465
 20
819.6321901889
 10
494.6878401229
 20
811.2846015976
 10
493.9454344699
 20
802.973687558
 10
492.957606692
 20
794.7140297876
 10
491.7260555217
 20
786.5201196657
 10
490.2529565284
 20
778.4063293623
 10
488.5409025142
 20
770.3868932115
 10
486.5928737113
 20
762.4758816348
 10
484.4123271892
 20
754.6871787892
 10
482.003077645
 20
747.0344341384
 10
479.369297404
 20
739.5310885297
 10
476.5156952331
 20
732.1902922379
 10
473.4471885154
 20
725.0249347673
 10
470.169231076
 20
718.047577797
 10
466.6875449607
 20
711.2704700814
 10
463.0082396457
 20
704.7054952966
 10
459.1377524325
 20
698.3641720401
 10
455.0828782508
 20
692.2576314794
 10
450.8507696578
 20
686.3965726481
 10
446.4488176295
 20
680.7912773477
 10
441.8847707698
 20
675.4515952455
 10
437.1665862987
 20
670.3868991719
 10
432.3025790641
 20
665.6060404168
 10
427.3012725303
 20
661.1174381362
 10
422.1714583823
 20
656.9289601432
 10
416.9221071193
 20
653.0479378091
 10
411.5624574611
 20
649.4811958657
 10
406.1018673369
 20
646.2349928008
 10
400.549962897
 20
643.3150208579
 10
394.9164596984
 20
640.7263911353
 10
389.2112521121
 20
638.4736633884
 10
383.4443537185
 20
636.5607715236
 10
377.6258675048
 20
634.9910832034
 10
371.7659858653
 20
633.7673551427
 10
365.8750353047
 20
632.8917182075
 10
359.9633125255
 20
632.3657221185
 10
354.0412036368
 20
632.1902907477
 10
354.0412036368
 20
632.1902907477
  0
LWPOLYLINE
  5
A3
330
1F
100
AcDbEntity
  8
0
  6
Continuous
 62
     7
370
    25
100
AcDbPolyline
 90
       33
 70
   128
 43
0.0
 10
258.3578673789
 20
945.1995379315
 10
257.0725677201
 20
942.9867750989
 10
253.6788133571
 20
936.7678797828
 10
250.4843173215
 20
930.3413591372
 10
247.4954126069
 20
923.719968556
 10
244.7180522272
 20
916.9168583141
 10
242.1577421615
 20
909.9455288635
 10
239.8195711562
 20
902.8198159324
 10
237.7081734726
 20
895.5538830744
 10
235.8277437875
 20
888.162147163
 10
234.1820148417
 20
880.6592821167
 10
232.7742574403
 20
873.0601853715
 10
231.6072655508
 20
865.3799480783
 10
230.6833488533
 20
857.6338141249
 10
230.0043550918
 20
849.8371633725
 10
229.5716179201
 20
842.0054781275
 10
229.3860090563
 20
834.1543054232
 10
229.4478861281
 20
826.2992332713
 10
229.757137377
 20
818.455857134
 10
230.3131444046
 20
810.6397501217
 10
231.1147970745
 20
802.8664289998
 10
232.160508413
 20
795.1513267146
 10
233.4482071588
 20
787.5097653852
 10
234.9753228614
 20
779.9569106685
 10
236.7388454864
 20
772.5077568577
 10
238.735250909
 20
765.1771045314
 10
240.9605903217
 20
757.9794934975
 10
243.4104380795
 20
750.9292251454
 10
246.0799364039
 20
744.0402916657
 10
248.9637879321
 20
737.3263723241
 10
252.0562408158
 20
730.8007962094
 10
255.3512004802
 20
724.4765273319
 10
258.3578673789
 20
719.1810495244
  0
LWPOLYLINE
  5
A4
330
1F
100
AcDbEntity
  8
0
  6
Continuous
 62
     1
370
    25
100
AcDbPolyline
 90
       39
 70
   128
 43
0.0
 10
323.0412004182
 20
832.190293728
 10
322.9171482512
 20
823.8151631342
 10
322.5452152678
 20
815.4547250854
 10
321.9260422179
 20
807.123647912
 10
321.0607317874
 20
798.8365440653
 10
319.9508038947
 20
790.607955216
 10
318.5981807897
 20
782.4523150013
 10
317.0052615592
 20
774.3839359866
 10
315.1748327205
 20
766.4169630991
 10
313.1100980231
 20
758.5653848039
 10
310.8146784493
 20
750.8429623233
 10
308.2926122138
 20
743.263255714
 10
305.5483249614
 20
735.8395568119
 10
302.586614866
 20
728.5848892318
 10
299.412697334
 20
721.5119860159
 10
296.0321155974
 20
714.6332449304
 10
292.4508301208
 20
707.9607359158
 10
288.6751142928
 20
701.5061712848
 10
284.711569328
 20
695.2808684693
 10
280.567183871
 20
689.2957574712
 10
276.249199886
 20
683.5613287078
 10
271.7652020642
 20
678.087640463
 10
267.1230731198
 20
672.8843039857
 10
262.3309341857
 20
667.9604536878
 10
257.3971895167
 20
663.3247024404
 10
252.3305264899
 20
658.9852160798
 10
247.139796395
 20
654.9495792972
 10
241.8341261932
 20
651.2248850451
 10
236.4228216598
 20
647.8176600324
 10
230.9153748342
 20
644.7338945256
 10
225.3214416692
 20
641.9789976464
 10
219.6508494803
 20
639.5577824698
 10
213.9135298917
 20
637.474510728
 10
208.1195635387
 20
635.7328481065
 10
202.2790981123
 20
634.3358344422
 10
196.4024005124
 20
633.2859135257
 10
190.4997599909
 20
632.584948002
 10
184.5815477559
 20
632.2341597663
 10
181.6198413858
 20
632.1902907477
  0
LWPOLYLINE
  5
A5
330
1F
100
AcDbEntity
  8
0
  6
Continuous
 62
     1
370
    25
100
AcDbPolyline
 90
       39
 70
   128
 43
0.0
 10
181.6198413858
 20
1032.1902967082
 10
184.5815477559
 20
1032.1464276896
 10
190.4997599909
 20
1031.795639454
 10
196.4024005124
 20
1031.0946739303
 10
202.2790981123
 20
1030.0447530137
 10
208.1195635387
 20
1028.6477393495
 10
213.9135298917
 20
1026.906076728
 10
219.6508494803
 20
1024.8228049861
 10
225.3214416692
 20
1022.4015898095
 10
230.9153748342
 20
1019.6466929303
 10
236.4228216598
 20
1016.5629274236
 10
241.8341261932
 20
1013.1557024108
 10
247.139796395
 20
1009.4310081588
 10
252.3305264899
 20
1005.3953713761
 10
257.3971895167
 20
1001.0558850156
 10
262.3309341857
 20
996.4201337682
 10
267.1230731198
 20
991.4962834703
 10
271.7652020642
 20
986.292946993
 10
276.249199886
 20
980.8192587482
 10
280.567183871
 20
975.0848299848
 10
284.711569328
 20
969.0997189866
 10
288.6751142928
 20
962.8744161712
 10
292.4508301208
 20
956.4198515402
 10
296.0321155974
 20
949.7473425256
 10
299.412697334
 20
942.8686014401
 10
302.586614866
 20
935.7956982242
 10
305.5483249614
 20
928.541030644
 10
308.2926122138
 20
921.1173317419
 10
310.8146784493
 20
913.5376251327
 10
313.1100980231
 20
905.8152026521
 10
315.1748327205
 20
897.9636243568
 10
317.0052615592
 20
889.9966514693
 10
318.5981807897
 20
881.9282724546
 10
319.9508038947
 20
873.7726322399
 10
321.0607317874
 20
865.5440433906
 10
321.9260422179
 20
857.2569395439
 10
322.5452152678
 20
848.9258623706
 10
322.9171482512
 20
840.5654243217
 10
323.0412004182
 20
832.190293728
  0
LWPOLYLINE
  5
A6
330
1F
100
AcDbEntity
  8
0
  6
Continuous
 62
     1
370
    25
100
AcDbPolyline
 90
       64
 70
   128
 43
0.0
 10
157.3557739744
 20
1005.1185972081
 10
154.0731897244
 20
1004.1323042499
 10
148.6844697633
 20
1002.2262073146
 10
143.3611379603
 20
999.9825245725
 10
138.113766689
 20
997.4057114707
 10
132.9527718613
 20
994.5008642064
 10
127.888401285
 20
991.2737793313
 10
122.9307096205
 20
987.7308345424
 10
118.0895397106
 20
983.87909299
 10
113.3745031098
 20
979.7261840688
 10
108.7949618363
 20
975.2803481208
 10
104.36000653
 20
970.5504215346
 10
100.0784447083
 20
965.545806943
 10
95.9587746897
 20
960.2764136182
 10
92.0091772118
 20
954.7527170764
 10
88.2374940106
 20
948.9856920229
 10
84.6512129197
 20
942.9867750989
 10
81.2574548313
 20
936.7678797828
 10
78.0629550704
 20
930.3413591372
 10
75.0740578064
 20
923.719968556
 10
72.2966974267
 20
916.9168583141
 10
69.736387361
 20
909.9455288635
 10
67.3982126305
 20
902.8198159324
 10
65.2868149468
 20
895.5538830744
 10
63.4063852617
 20
888.162147163
 10
61.7606600413
 20
880.6592821167
 10
60.3528989145
 20
873.0601853715
 10
59.185907025
 20
865.3799480783
 10
58.2619903275
 20
857.6338141249
 10
57.582996566
 20
849.8371633725
 10
57.1502593944
 20
842.0054781275
 10
56.9646505305
 20
834.1543054232
 10
57.026535053
 20
826.2992332713
 10
57.3357788512
 20
818.455857134
 10
57.8917858788
 20
810.6397501217
 10
58.6934385488
 20
802.8664289998
 10
59.7391498873
 20
795.1513267146
 10
61.026848633
 20
787.5097653852
 10
62.5539680609
 20
779.9569106685
 10
64.3174869606
 20
772.5077568577
 10
66.3138961086
 20
765.1771045314
 10
68.5392355213
 20
757.9794934975
 10
70.9890832791
 20
750.9292251454
 10
73.6585816035
 20
744.0402916657
 10
76.5424256811
 20
737.3263723241
 10
79.6348897407
 20
730.8007962094
 10
82.9298382291
 20
724.4765273319
 10
86.4207258114
 20
718.3661050187
 10
90.1006197223
 20
712.4816737162
 10
93.9622183928
 20
706.8349010335
 10
97.9978551754
 20
701.4370298968
 10
102.1995132455
 20
696.2987518893
 10
106.5588535407
 20
691.4302594052
 10
111.067220349
 20
686.8412531005
 10
115.7156636605
 20
682.5408077823
 10
120.4949531371
 20
678.5374767171
 10
125.3956002315
 20
674.839217125
 10
130.4078756498
 20
671.4533752786
 10
135.5218279773
 20
668.3866417991
 10
140.7273037025
 20
665.6451261626
 10
146.0139656106
 20
663.2342821942
 10
151.3713223526
 20
661.1588782655
 10
156.7887326369
 20
659.423041998
 10
157.3557739744
 20
659.2619902478
  0
INSERT
  5
B2
330
1F
100
AcDbEntity
  8
FORMAT
 62
     7
100
AcDbBlockReference
  2
SW_CENTERMARKSYMBOL_0
 10
123.041197438
 20
832.190293728
 30
0.0
  0
LINE
  5
B3
330
1F
100
AcDbEntity
  8
0
  6
Continuous
 62
     7
370
    25
100
AcDbLine
 10
729.0857054747
 20
72.5355941625
 30
0.0
 11
729.0857054747
 21
-161.6216998725
 31
0.0
  0
LINE
  5
B4
330
1F
100
AcDbEntity
  8
0
  6
Continuous
 62
     7
370
    25
100
AcDbLine
 10
1129.0857114352
 20
-161.6216998725
 30
0.0
 11
1129.0857114352
 21
72.5355941625
 31
0.0
  0
LINE
  5
B5
330
1F
100
AcDbEntity
  8
0
  6
Continuous
 62
     7
370
    25
100
AcDbLine
 10
1129.0857114352
 20
72.5355941625
 30
0.0
 11
1129.0857114352
 21
213.956942019
 31
0.0
  0
LINE
  5
B6
330
1F
100
AcDbEntity
  8
0
  6
Continuous
 62
     7
370
    25
100
AcDbLine
 10
729.0857054747
 20
213.956942019
 30
0.0
 11
729.0857054747
 21
72.5355941625
 31
0.0
  0
LINE
  5
B7
330
1F
100
AcDbEntity
  8
0
  6
Continuous
 62
     7
370
    25
100
AcDbLine
 10
729.0857054747
 20
386.378278193
 30
0.0
 11
729.0857054747
 21
213.956942019
 31
0.0
  0
LINE
  5
B8
330
1F
100
AcDbEntity
  8
0
  6
Continuous
 62
     7
370
    25
100
AcDbLine
 10
1129.0857114352
 20
213.956942019
 30
0.0
 11
1129.0857114352
 21
386.378278193
 31
0.0
  0
LINE
  5
B9
330
1F
100
AcDbEntity
  8
0
  6
Continuous
 62
     7
370
    25
100
AcDbLine
 10
729.0857054747
 20
-161.6216998725
 30
0.0
 11
1129.0857114352
 21
-161.6216998725
 31
0.0
  0
LWPOLYLINE
  5
BA
330
1F
100
AcDbEntity
  8
0
  6
Continuous
 62
     7
370
    25
100
AcDbPolyline
 90
       76
 70
   128
 43
0.0
 10
729.0857054747
 20
386.378278193
 10
729.2611368454
 20
392.300416884
 10
729.7871329344
 20
398.2121247621
 10
730.6627698696
 20
404.1030902238
 10
731.8864979304
 20
409.962942061
 10
733.4561862505
 20
415.7814282746
 10
735.3690781153
 20
421.5483564706
 10
737.6218058623
 20
427.2535938592
 10
740.2104355849
 20
432.8870672555
 10
743.1304075278
 20
438.4390014978
 10
746.3766105927
 20
443.8995618196
 10
749.943352536
 20
449.2592114778
 10
753.8243748701
 20
454.5085329385
 10
758.0128528631
 20
459.6384066911
 10
762.5014551438
 20
464.6397132249
 10
767.2823138989
 20
469.5036906571
 10
772.3470099724
 20
474.2218751283
 10
777.6866920746
 20
478.785921988
 10
783.2919873751
 20
483.1879038186
 10
789.1530462063
 20
487.4200124116
 10
795.259586767
 20
491.474856791
 10
801.6009100235
 20
495.3453440042
 10
808.1658848084
 20
499.0246195169
 10
814.942992524
 20
502.5063056321
 10
821.9203494943
 20
505.7843226762
 10
829.0857069648
 20
508.8527697892
 10
836.4265032566
 20
511.7064017625
 10
843.9298488653
 20
514.3401522012
 10
851.5825935162
 20
516.7494315476
 10
859.3712963618
 20
518.9300078721
 10
867.2823079384
 20
520.8780068727
 10
875.3017440892
 20
522.5900310845
 10
883.4155343927
 20
524.0631598802
 10
891.6094445146
 20
525.2947110505
 10
899.869102285
 20
526.2825388284
 10
908.1800163246
 20
527.0249146791
 10
916.5276049159
 20
527.520586905
 10
924.8972244083
 20
527.7686614366
 10
933.2741925015
 20
527.7686614366
 10
941.643811994
 20
527.520586905
 10
949.9914005852
 20
527.0249146791
 10
958.3023146249
 20
526.2825388284
 10
966.5619723953
 20
525.2947110505
 10
974.7558825172
 20
524.0631598802
 10
982.8696728206
 20
522.5900310845
 10
990.8891089714
 20
520.8780068727
 10
998.8001205481
 20
518.9300078721
 10
1006.5888233937
 20
516.7494315476
 10
1014.2415680445
 20
514.3401522012
 10
1021.7449136532
 20
511.7064017625
 10
1029.085709945
 20
508.8527697892
 10
1036.2510674155
 20
505.7843226762
 10
1043.2284243859
 20
502.5063056321
 10
1050.0055321015
 20
499.0246195169
 10
1056.5705068863
 20
495.3453440042
 10
1062.9118301428
 20
491.474856791
 10
1069.0183707035
 20
487.4200124116
 10
1074.8794295347
 20
483.1879038186
 10
1080.4847248352
 20
478.785921988
 10
1085.8244069374
 20
474.2218751283
 10
1090.889103011
 20
469.5036906571
 10
1095.6699617661
 20
464.6397132249
 10
1100.1585640467
 20
459.6384066911
 10
1104.3470420397
 20
454.5085329385
 10
1108.2280643738
 20
449.2592114778
 10
1111.7948063172
 20
443.8995618196
 10
1115.0410093821
 20
438.4390014978
 10
1117.960981325
 20
432.8870672555
 10
1120.5496110476
 20
427.2535938592
 10
1122.8023387945
 20
421.5483564706
 10
1124.7152306593
 20
415.7814282746
 10
1126.2849189795
 20
409.962942061
 10
1127.5086470402
 20
404.1030902238
 10
1128.3842839754
 20
398.2121247621
 10
1128.9102800644
 20
392.300416884
 10
1129.0857114352
 20
386.378278193
  0
LINE
  5
BB
330
1F
100
AcDbEntity
  8
0
  6
Continuous
 62
     1
370
    25
100
AcDbLine
 10
729.0857054747
 20
72.5355941625
 30
0.0
 11
1129.0857114352
 21
72.5355941625
 31
0.0
  0
LWPOLYLINE
  5
BC
330
1F
100
AcDbEntity
  8
0
  6
Continuous
 62
     1
370
    25
100
AcDbPolyline
 90
       77
 70
   128
 43
0.0
 10
729.0857054747
 20
213.956942019
 10
729.1295744932
 20
216.9186372132
 10
729.4803627289
 20
222.8368718
 10
730.1813282526
 20
228.7394899697
 10
731.2312491692
 20
234.6162099214
 10
732.6282628334
 20
240.4566604466
 10
734.3699254549
 20
246.250619349
 10
736.4531971968
 20
251.9879538388
 10
738.8744123734
 20
257.6585609288
 10
741.6293092526
 20
263.2524866433
 10
744.7130747593
 20
268.7599260182
 10
748.1202997721
 20
274.1712231011
 10
751.8449940241
 20
279.4769007535
 10
755.8806308068
 20
284.6676308484
 10
760.2201171673
 20
289.7342938752
 10
764.8558684147
 20
294.6680385442
 10
769.7797187126
 20
299.4601625772
 10
774.9830551899
 20
304.1023213239
 10
780.4567434347
 20
308.5862893434
 10
786.1911721981
 20
312.9042882295
 10
792.1762831963
 20
317.0486885877
 10
798.4015860117
 20
321.0122186513
 10
804.8561506427
 20
324.7879344792
 10
811.5286596573
 20
328.3692199559
 10
818.4074007428
 20
331.7497867913
 10
825.4803039587
 20
334.9237043233
 10
832.7349715389
 20
337.8854293199
 10
840.158670441
 20
340.62968677
 10
847.7383770502
 20
343.151797709
 10
855.4607995308
 20
345.4471725793
 10
863.312377826
 20
347.511937079
 10
871.2793507136
 20
349.3423361154
 10
879.3477297283
 20
350.935270247
 10
887.503369943
 20
352.2878784509
 10
895.7319587923
 20
353.3978361459
 10
904.019062639
 20
354.2631763787
 10
912.3501398123
 20
354.882289824
 10
920.7105778611
 20
355.2542228074
 10
929.0857084549
 20
355.3783196778
 10
937.4608390487
 20
355.2542228074
 10
945.8212770975
 20
354.882289824
 10
954.1523542709
 20
354.2631763787
 10
962.4394581176
 20
353.3978361459
 10
970.6680469669
 20
352.2878784509
 10
978.8236871815
 20
350.935270247
 10
986.8920661963
 20
349.3423361154
 10
994.8590390838
 20
347.511937079
 10
1002.710617379
 20
345.4471725793
 10
1010.4330398596
 20
343.151797709
 10
1018.0127464689
 20
340.62968677
 10
1025.436445371
 20
337.8854293199
 10
1032.6911129511
 20
334.9237043233
 10
1039.764016167
 20
331.7497867913
 10
1046.6427572525
 20
328.3692199559
 10
1053.3152662671
 20
324.7879344792
 10
1059.7698308981
 20
321.0122186513
 10
1065.9951337136
 20
317.0486885877
 10
1071.9802447117
 20
312.9042882295
 10
1077.7146734751
 20
308.5862893434
 10
1083.1883617199
 20
304.1023213239
 10
1088.3916981972
 20
299.4601625772
 10
1093.3155484951
 20
294.6680385442
 10
1097.9512997425
 20
289.7342938752
 10
1102.2907861031
 20
284.6676308484
 10
1106.3264228857
 20
279.4769007535
 10
1110.0511171377
 20
274.1712231011
 10
1113.4583421505
 20
268.7599260182
 10
1116.5421076573
 20
263.2524866433
 10
1119.2970045365
 20
257.6585609288
 10
1121.718219713
 20
251.9879538388
 10
1123.8014914549
 20
246.250619349
 10
1125.5431540764
 20
240.4566604466
 10
1126.9401677407
 20
234.6162099214
 10
1127.9900886572
 20
228.7394899697
 10
1128.6910541809
 20
222.8368718
 10
1129.0418424166
 20
216.9186372132
 10
1129.0857114352
 20
213.956942019
  0
LINE
  5
BD
330
1F
100
AcDbEntity
  8
0
  6
Continuous
 62
     7
370
    25
100
AcDbLine
 10
354.0412036368
 20
-431.0633369821
 30
0.0
 11
181.6198413858
 21
-431.0633369821
 31
0.0
  0
LINE
  5
BE
330
1F
100
AcDbEntity
  8
0
  6
Continuous
 62
     7
370
    25
100
AcDbLine
 10
181.6198413858
 20
-831.0633429426
 30
0.0
 11
354.0412036368
 21
-831.0633429426
 31
0.0
  0
LINE
  5
BF
330
1F
100
AcDbEntity
  8
0
  6
Continuous
 62
     7
370
    25
100
AcDbLine
 10
123.041197438
 20
-831.0633429426
 30
0.0
 11
181.6198413858
 21
-831.0633429426
 31
0.0
  0
LINE
  5
C0
330
1F
100
AcDbEntity
  8
0
  6
Continuous
 62
     7
370
    25
100
AcDbLine
 10
181.6198413858
 20
-431.0633369821
 30
0.0
 11
123.041197438
 21
-431.0633369821
 31
0.0
  0
LWPOLYLINE
  5
C1
330
1F
100
AcDbEntity
  8
0
  6
Continuous
 62
     7
370
    25
100
AcDbPolyline
 90
      151
 70
   128
 43
0.0
 10
354.0412036368
 20
-831.0633429426
 10
359.9633125255
 20
-830.8879115719
 10
365.8750353047
 20
-830.3619154829
 10
371.7659858653
 20
-829.4862785476
 10
377.6258675048
 20
-828.2625504869
 10
383.4443537185
 20
-826.6928621668
 10
389.2112521121
 20
-824.779970302
 10
394.9164596984
 20
-822.527242555
 10
400.549962897
 20
-819.9386128324
 10
406.1018673369
 20
-817.0186408895
 10
411.5624574611
 20
-813.7724378246
 10
416.9221071193
 20
-810.2056958812
 10
422.1714583823
 20
-806.3246735472
 10
427.3012725303
 20
-802.1361955541
 10
432.3025790641
 20
-797.6475932735
 10
437.1665862987
 20
-792.8667345184
 10
441.8847707698
 20
-787.8020384449
 10
446.4488176295
 20
-782.4623563427
 10
450.8507696578
 20
-776.8570610422
 10
455.0828782508
 20
-770.996002211
 10
459.1377524325
 20
-764.8894616503
 10
463.0082396457
 20
-758.5481383938
 10
466.6875449607
 20
-751.9831636089
 10
470.169231076
 20
-745.2060558933
 10
473.4471885154
 20
-738.228698923
 10
476.5156952331
 20
-731.0633414525
 10
479.369297404
 20
-723.7225451607
 10
482.003077645
 20
-716.2191995519
 10
484.4123271892
 20
-708.5664549011
 10
486.5928737113
 20
-700.7777520555
 10
488.5409025142
 20
-692.8667404789
 10
490.2529565284
 20
-684.8473043281
 10
491.7260555217
 20
-676.7335140246
 10
492.957606692
 20
-668.5396039027
 10
493.9454344699
 20
-660.2799461323
 10
494.6878401229
 20
-651.9690320927
 10
495.1834825465
 20
-643.6214435014
 10
495.4315272758
 20
-635.251824009
 10
495.4315272758
 20
-626.8748559158
 10
495.1834825465
 20
-618.5052364233
 10
494.6878401229
 20
-610.157647832
 10
493.9454344699
 20
-601.8467337924
 10
492.957606692
 20
-593.587076022
 10
491.7260555217
 20
-585.3931659001
 10
490.2529565284
 20
-577.2793755966
 10
488.5409025142
 20
-569.2599394459
 10
486.5928737113
 20
-561.3489278692
 10
484.4123271892
 20
-553.5602250236
 10
482.003077645
 20
-545.9074803728
 10
479.369297404
 20
-538.4041347641
 10
476.5156952331
 20
-531.0633384722
 10
473.4471885154
 20
-523.8979810017
 10
470.169231076
 20
-516.9206240314
 10
466.6875449607
 20
-510.1435163158
 10
463.0082396457
 20
-503.578541531
 10
459.1377524325
 20
-497.2372182745
 10
455.0828782508
 20
-491.1306777138
 10
450.8507696578
 20
-485.2696188825
 10
446.4488176295
 20
-479.6643235821
 10
441.8847707698
 20
-474.3246414799
 10
437.1665862987
 20
-469.2599454063
 10
432.3025790641
 20
-464.4790866512
 10
427.3012725303
 20
-459.9904843706
 10
422.1714583823
 20
-455.8020063776
 10
416.9221071193
 20
-451.9209840435
 10
411.5624574611
 20
-448.3542421001
 10
406.1018673369
 20
-445.1080390352
 10
400.549962897
 20
-442.1880670923
 10
394.9164596984
 20
-439.5994373697
 10
389.2112521121
 20
-437.3467096227
 10
383.4443537185
 20
-435.433817758
 10
377.6258675048
 20
-433.8641294378
 10
371.7659858653
 20
-432.6404013771
 10
365.8750353047
 20
-431.7647644418
 10
359.9633125255
 20
-431.2387683529
 10
354.0412036368
 20
-431.0633369821
 10
348.119079847
 20
-431.2387683529
 10
342.2073570678
 20
-431.7647644418
 10
336.3164065072
 20
-432.6404013771
 10
330.4565397689
 20
-433.8641294378
 10
324.638038654
 20
-435.433817758
 10
318.8711402604
 20
-437.3467096227
 10
313.1659326741
 20
-439.5994373697
 10
307.5324294755
 20
-442.1880670923
 10
301.9805250356
 20
-445.1080390352
 10
296.5199498126
 20
-448.3542421001
 10
291.1602852532
 20
-451.9209840435
 10
285.9109339902
 20
-455.8020063776
 10
280.7811198422
 20
-459.9904843706
 10
275.7798133084
 20
-464.4790866512
 10
270.9158060739
 20
-469.2599454063
 10
266.1976365039
 20
-474.3246414799
 10
261.633574743
 20
-479.6643235821
 10
257.2316227147
 20
-485.2696188825
 10
252.9994992206
 20
-491.1306777138
 10
248.9446548411
 20
-497.2372182745
 10
245.074167628
 20
-503.578541531
 10
241.3948548624
 20
-510.1435163158
 10
237.9131612966
 20
-516.9206240314
 10
234.6351964066
 20
-523.8979810017
 10
231.5667120406
 20
-531.0633384722
 10
228.7130875179
 20
-538.4041347641
 10
226.0793296287
 20
-545.9074803728
 10
223.6700577328
 20
-553.5602250236
 10
221.48950376
 20
-561.3489278692
 10
219.5414973089
 20
-569.2599394459
 10
217.8294432947
 20
-577.2793755966
 10
216.356351752
 20
-585.3931659001
 10
215.1248005816
 20
-593.587076022
 10
214.1369653532
 20
-601.8467337924
 10
213.3945597002
 20
-610.157647832
 10
212.8989023754
 20
-618.5052364233
 10
212.6508576462
 20
-626.8748559158
 10
212.6508576462
 20
-635.251824009
 10
212.8989023754
 20
-643.6214435014
 10
213.3945597002
 20
-651.9690320927
 10
214.1369653532
 20
-660.2799461323
 10
215.1248005816
 20
-668.5396039027
 10
216.356351752
 20
-676.7335140246
 10
217.8294432947
 20
-684.8473043281
 10
219.5414973089
 20
-692.8667404789
 10
221.48950376
 20
-700.7777520555
 10
223.6700577328
 20
-708.5664549011
 10
226.0793296287
 20
-716.2191995519
 10
228.7130875179
 20
-723.7225451607
 10
231.5667120406
 20
-731.0633414525
 10
234.6351964066
 20
-738.228698923
 10
237.9131612966
 20
-745.2060558933
 10
241.3948548624
 20
-751.9831636089
 10
245.074167628
 20
-758.5481383938
 10
248.9446548411
 20
-764.8894616503
 10
252.9994992206
 20
-770.996002211
 10
257.2316227147
 20
-776.8570610422
 10
261.633574743
 20
-782.4623563427
 10
266.1976365039
 20
-787.8020384449
 10
270.9158060739
 20
-792.8667345184
 10
275.7798133084
 20
-797.6475932735
 10
280.7811198422
 20
-802.1361955541
 10
285.9109339902
 20
-806.3246735472
 10
291.1602852532
 20
-810.2056958812
 10
296.5199498126
 20
-813.7724378246
 10
301.9805250356
 20
-817.0186408895
 10
307.5324294755
 20
-819.9386128324
 10
313.1659326741
 20
-822.527242555
 10
318.8711402604
 20
-824.779970302
 10
324.638038654
 20
-826.6928621668
 10
330.4565397689
 20
-828.2625504869
 10
336.3164065072
 20
-829.4862785476
 10
342.2073570678
 20
-830.3619154829
 10
348.119079847
 20
-830.8879115719
 10
354.0412036368
 20
-831.0633429426
  0
LWPOLYLINE
  5
C2
330
1F
100
AcDbEntity
  8
0
  6
Continuous
 62
     7
370
    25
100
AcDbPolyline
 90
      142
 70
   128
 43
0.0
 10
354.0412036368
 20
-807.363344087
 10
348.4878537843
 20
-807.1883299488
 10
342.9455456922
 20
-806.6636302608
 10
337.4252615163
 20
-805.7903030056
 10
331.9379536101
 20
-804.5700618166
 10
326.4945445249
 20
-803.0053504843
 10
321.1058227012
 20
-801.099253549
 10
315.782502074
 20
-798.8555708069
 10
310.5351177642
 20
-796.2787577051
 10
305.374130387
 20
-793.3739104408
 10
300.309762139
 20
-790.1468255657
 10
295.352071304
 20
-786.6038807768
 10
290.5108926484
 20
-782.7521392244
 10
285.7958523223
 20
-778.5992303032
 10
281.2163231561
 20
-774.1533943552
 10
276.7813650557
 20
-769.423467769
 10
272.4997995088
 20
-764.4188531774
 10
268.3801350781
 20
-759.1494598526
 10
264.4305376002
 20
-753.6257633108
 10
260.6588450858
 20
-747.8587382573
 10
257.0725677201
 20
-741.8598213333
 10
253.6788133571
 20
-735.6409260172
 10
250.4843173215
 20
-729.2144053715
 10
247.4954126069
 20
-722.5930147904
 10
244.7180522272
 20
-715.7899045485
 10
242.1577421615
 20
-708.8185750979
 10
239.8195711562
 20
-701.6928621668
 10
237.7081734726
 20
-694.4269293088
 10
235.8277437875
 20
-687.0351933974
 10
234.1820148417
 20
-679.5323283511
 10
232.7742574403
 20
-671.9332316059
 10
231.6072655508
 20
-664.2529943126
 10
230.6833488533
 20
-656.5068603593
 10
230.0043550918
 20
-648.7102096069
 10
229.5716179201
 20
-640.8785243619
 10
229.3860090563
 20
-633.0273516576
 10
229.4478861281
 20
-625.1722795057
 10
229.757137377
 20
-617.3289033684
 10
230.3131444046
 20
-609.5127963561
 10
231.1147970745
 20
-601.7394752342
 10
232.160508413
 20
-594.024372949
 10
233.4482071588
 20
-586.3828116196
 10
234.9753228614
 20
-578.8299569029
 10
236.7388454864
 20
-571.3808030921
 10
238.735250909
 20
-564.0501507658
 10
240.9605903217
 20
-556.8525397319
 10
243.4104380795
 20
-549.8022713798
 10
246.0799364039
 20
-542.9133379
 10
248.9637879321
 20
-536.1994185585
 10
252.0562408158
 20
-529.6738424438
 10
255.3512004802
 20
-523.3495735663
 10
258.8420806119
 20
-517.2391512531
 10
262.5219819734
 20
-511.3547199506
 10
266.3835731933
 20
-505.7079472679
 10
270.4192099759
 20
-500.3100761312
 10
274.6208754966
 20
-495.1717981237
 10
278.9802102038
 20
-490.3033056396
 10
283.4885714242
 20
-485.7142993349
 10
288.1370184609
 20
-481.4138540167
 10
292.9163125941
 20
-477.4105229515
 10
297.8169617841
 20
-473.7122633594
 10
302.8292355725
 20
-470.326421513
 10
307.9431799838
 20
-467.2596880335
 10
313.1486622283
 20
-464.518172397
 10
318.435325999
 20
-462.1073284286
 10
323.7926808784
 20
-460.0319244999
 10
329.2100874373
 20
-458.2960882324
 10
334.6768019387
 20
-456.9032617944
 10
340.181961436
 20
-455.8562317032
 10
345.7146284768
 20
-455.1570394176
 10
351.2638358066
 20
-454.8071005482
 10
356.818556566
 20
-454.8071005482
 10
362.3677638957
 20
-455.1570394176
 10
367.9004309365
 20
-455.8562317032
 10
373.4055904338
 20
-456.9032617944
 10
378.8723198363
 20
-458.2960882324
 10
384.2897263953
 20
-460.0319244999
 10
389.6470812747
 20
-462.1073284286
 10
394.9337450454
 20
-464.518172397
 10
400.1391974875
 20
-467.2596880335
 10
405.2531568
 20
-470.326421513
 10
410.2654305884
 20
-473.7122633594
 10
415.1660946795
 20
-477.4105229515
 10
419.9453739116
 20
-481.4138540167
 10
424.5938209483
 20
-485.7142993349
 10
429.1021970698
 20
-490.3033056396
 10
433.4615317771
 20
-495.1717981237
 10
437.6631823966
 20
-500.3100761312
 10
441.6988340804
 20
-505.7079472679
 10
445.5604103991
 20
-511.3547199506
 10
449.2403117606
 20
-517.2391512531
 10
452.7312067935
 20
-523.3495735663
 10
456.0261515567
 20
-529.6738424438
 10
459.1186193416
 20
-536.1994185585
 10
462.0024708697
 20
-542.9133379
 10
464.671954293
 20
-549.8022713798
 10
467.1217946002
 20
-556.8525397319
 10
469.3471340129
 20
-564.0501507658
 10
471.3435617873
 20
-571.3808030921
 10
473.10705461
 20
-578.8299569029
 10
474.6341852138
 20
-586.3828116196
 10
475.9218839595
 20
-594.024372949
 10
476.9675878474
 20
-601.7394752342
 10
477.7692405173
 20
-609.5127963561
 10
478.3252624461
 20
-617.3289033684
 10
478.6345211455
 20
-625.1722795057
 10
478.6963907668
 20
-633.0273516576
 10
478.510781903
 20
-640.8785243619
 10
478.0780521819
 20
-648.7102096069
 10
477.3990360686
 20
-656.5068603593
 10
476.4751342723
 20
-664.2529943126
 10
475.3081349322
 20
-671.9332316059
 10
473.9003924319
 20
-679.5323283511
 10
472.254648585
 20
-687.0351933974
 10
470.3742114493
 20
-694.4269293088
 10
468.2628361175
 20
-701.6928621668
 10
465.9246353099
 20
-708.8185750979
 10
463.3643475959
 20
-715.7899045485
 10
460.5869797656
 20
-722.5930147904
 10
457.598075051
 20
-729.2144053715
 10
454.4035939166
 20
-735.6409260172
 10
451.0098246524
 20
-741.8598213333
 10
447.4235323855
 20
-747.8587382573
 10
443.6518696734
 20
-753.6257633108
 10
439.7022572944
 20
-759.1494598526
 10
435.5825928637
 20
-764.4188531774
 10
431.3010422179
 20
-769.423467769
 10
426.8660692164
 20
-774.1533943552
 10
422.2865251491
 20
-778.5992303032
 10
417.5714997241
 20
-782.7521392244
 10
412.7303210685
 20
-786.6038807768
 10
407.7726451346
 20
-790.1468255657
 10
402.7082768867
 20
-793.3739104408
 10
397.5472597072
 20
-796.2787577051
 10
392.2999051997
 20
-798.8555708069
 10
386.9765547702
 20
-801.099253549
 10
381.5878478477
 20
-803.0053504843
 10
376.1444238612
 20
-804.5700618166
 10
370.6571457574
 20
-805.7903030056
 10
365.1368466804
 20
-806.6636302608
 10
359.5945385882
 20
-807.1883299488
 10
354.0412036368
 20
-807.363344087
  0
ARC
  5
C3
330
1F
100
AcDbEntity
  8
0
  6
Continuous
 62
     7
370
    25
100
AcDbCircle
 10
123.041197438
 20
-631.0633399624
 30
0.0
 40
200.0000000000001
100
AcDbArc
 50
90.0
 51
270.0
  0
ARC
  5
C4
330
1F
100
AcDbEntity
  8
0
  6
Continuous
 62
     7
370
    25
100
AcDbCircle
 10
123.041197438
 20
-631.0633399624
 30
0.0
 40
176.3
100
AcDbArc
 50
320.1331721261
 51
39.8668278739
  0
LWPOLYLINE
  5
C5
330
1F
100
AcDbEntity
  8
0
  6
Continuous
 62
     1
370
    25
100
AcDbPolyline
 90
       77
 70
   128
 43
0.0
 10
181.6198413858
 20
-431.0633369821
 10
178.6581350157
 20
-431.1072060007
 10
172.7399190554
 20
-431.4579942364
 10
166.8372859845
 20
-432.1589597601
 10
160.960580934
 20
-433.2088806766
 10
155.1201229581
 20
-434.6058943409
 10
149.3261510173
 20
-436.3475569624
 10
143.5888351539
 20
-438.4308287042
 10
137.9182383084
 20
-440.8520438808
 10
132.3243098
 20
-443.60694076
 10
126.8168613447
 20
-446.6907062668
 10
121.4055563455
 20
-450.0979312795
 10
116.0998877736
 20
-453.8226255316
 10
110.9091628009
 20
-457.8582623142
 10
105.8424895296
 20
-462.1977486748
 10
100.9087541738
 20
-466.8334999222
 10
96.1166152397
 20
-471.7573502201
 10
91.4744769821
 20
-476.9606866974
 10
86.9904828855
 20
-482.4343749422
 10
82.6725026259
 20
-488.1688037056
 10
78.5281097183
 20
-494.1539147037
 10
74.5645722041
 20
-500.3792175192
 10
70.7888489255
 20
-506.8337821502
 10
67.2075597236
 20
-513.5062911648
 10
63.8269891629
 20
-520.3850322503
 10
60.6530679056
 20
-527.4579354662
 10
57.6913652608
 20
-534.7126030463
 10
54.9470705578
 20
-542.1363019484
 10
52.4250043222
 20
-549.7160085577
 10
50.129592199
 20
-557.4384310383
 10
48.0648575017
 20
-565.2900093335
 10
46.2344212124
 20
-573.256982221
 10
44.6414945313
 20
-581.3253612357
 10
43.2888788769
 20
-589.4810014504
 10
42.1789435336
 20
-597.7095902997
 10
41.3136331031
 20
-605.9966941464
 10
40.6944675037
 20
-614.3277713197
 10
40.3225345203
 20
-622.6882093686
 10
40.1984823534
 20
-631.0633399624
 10
40.3225345203
 20
-639.4384705561
 10
40.6944675037
 20
-647.798908605
 10
41.3136331031
 20
-656.1299857783
 10
42.1789435336
 20
-664.417089625
 10
43.2888788769
 20
-672.6456784743
 10
44.6414945313
 20
-680.801318689
 10
46.2344212124
 20
-688.8696977037
 10
48.0648575017
 20
-696.8366705912
 10
50.129592199
 20
-704.6882488865
 10
52.4250043222
 20
-712.4106713671
 10
54.9470705578
 20
-719.9903779763
 10
57.6913652608
 20
-727.4140768784
 10
60.6530679056
 20
-734.6687444586
 10
63.8269891629
 20
-741.7416476744
 10
67.2075597236
 20
-748.62038876
 10
70.7888489255
 20
-755.2928977746
 10
74.5645722041
 20
-761.7474624056
 10
78.5281097183
 20
-767.972765221
 10
82.6725026259
 20
-773.9578762192
 10
86.9904828855
 20
-779.6923049825
 10
91.4744769821
 20
-785.1659932274
 10
96.1166152397
 20
-790.3693297046
 10
100.9087541738
 20
-795.2931800026
 10
105.8424895296
 20
-799.92893125
 10
110.9091628009
 20
-804.2684176105
 10
116.0998877736
 20
-808.3040543932
 10
121.4055563455
 20
-812.0287486452
 10
126.8168613447
 20
-815.435973658
 10
132.3243098
 20
-818.5197391647
 10
137.9182383084
 20
-821.2746360439
 10
143.5888351539
 20
-823.6958512205
 10
149.3261510173
 20
-825.7791229624
 10
155.1201229581
 20
-827.5207855839
 10
160.960580934
 20
-828.9177992481
 10
166.8372859845
 20
-829.9677201647
 10
172.7399190554
 20
-830.6686856884
 10
178.6581350157
 20
-831.019473924
 10
181.6198413858
 20
-831.0633429426
  0
LWPOLYLINE
  5
C6
330
1F
100
AcDbEntity
  8
0
  6
Continuous
 62
     1
370
    25
100
AcDbPolyline
 90
       38
 70
   128
 43
0.0
 10
267.8305206487
 20
-503.7168541092
 10
269.2774681041
 20
-505.7079472679
 10
273.139059324
 20
-511.3547199506
 10
276.8189606854
 20
-517.2391512531
 10
280.3098408172
 20
-523.3495735663
 10
283.6047855803
 20
-529.6738424438
 10
286.6972533652
 20
-536.1994185585
 10
289.5811048934
 20
-542.9133379
 10
292.2506032178
 20
-549.8022713798
 10
294.700443525
 20
-556.8525397319
 10
296.9257829377
 20
-564.0501507658
 10
298.922195811
 20
-571.3808030921
 10
300.685718436
 20
-578.8299569029
 10
302.2128341386
 20
-586.3828116196
 10
303.5005328843
 20
-594.024372949
 10
304.5462367722
 20
-601.7394752342
 10
305.3479043433
 20
-609.5127963561
 10
305.9038964698
 20
-617.3289033684
 10
306.2131551692
 20
-625.1722795057
 10
306.2750247905
 20
-633.0273516576
 10
306.0894159266
 20
-640.8785243619
 10
305.6566862056
 20
-648.7102096069
 10
304.9776849935
 20
-656.5068603593
 10
304.0537831971
 20
-664.2529943126
 10
302.8867838571
 20
-671.9332316059
 10
301.4790264556
 20
-679.5323283511
 10
299.8332975099
 20
-687.0351933974
 10
297.9528603742
 20
-694.4269293088
 10
295.8414701411
 20
-701.6928621668
 10
293.5032991359
 20
-708.8185750979
 10
290.9429816195
 20
-715.7899045485
 10
288.1656286904
 20
-722.5930147904
 10
285.1767239758
 20
-729.2144053715
 10
281.9822279403
 20
-735.6409260172
 10
278.5884735772
 20
-741.8598213333
 10
275.0021813104
 20
-747.8587382573
 10
271.2305036971
 20
-753.6257633108
 10
267.8305206487
 20
-758.4098258156
  0
INSERT
  5
D2
330
1F
100
AcDbEntity
  8
FORMAT
 62
     7
100
AcDbBlockReference
  2
SW_CENTERMARKSYMBOL_1
 10
123.041197438
 20
-631.0633399624
 30
0.0
  0
LINE
  5
D3
330
1F
100
AcDbEntity
  8
0
  6
Continuous
 62
     7
370
    25
100
AcDbLine
 10
695.8320385237
 20
-719.2779064293
 30
0.0
 11
695.8320385237
 21
-910.4768934096
 31
0.0
  0
LINE
  5
D4
330
1F
100
AcDbEntity
  8
0
  6
Continuous
 62
     7
370
    25
100
AcDbLine
 10
1095.8320569661
 20
-910.4768934096
 30
0.0
 11
1095.8320569661
 21
-719.2779064293
 31
0.0
  0
LINE
  5
D5
330
1F
100
AcDbEntity
  8
0
  6
Continuous
 62
     7
370
    25
100
AcDbLine
 10
885.9686315222
 20
-268.7173665255
 30
0.0
 11
764.0483210043
 21
-479.8895701367
 31
0.0
  0
LINE
  5
D6
330
1F
100
AcDbEntity
  8
0
  6
Continuous
 62
     7
370
    25
100
AcDbLine
 10
1110.4584885391
 20
-679.8895574695
 30
0.0
 11
1232.3787951057
 21
-468.717404809
 31
0.0
  0
SPLINE
  5
D7
330
1F
100
AcDbEntity
  8
0
  6
Continuous
 62
     7
370
    25
100
AcDbSpline
210
0.0
220
0.0
230
1.0
 70
     8
 71
     3
 72
    30
 73
    26
 74
     0
 42
0.000000001
 43
0.00000001
 40
0.0
 40
0.0
 40
0.0
 40
0.0
 40
0.0256248192872026
 40
0.0696666545808733
 40
0.1137347874055059
 40
0.1578426388470844
 40
0.2020047199460484
 40
0.2462349512353501
 40
0.2905469761313237
 40
0.3349530128521025
 40
0.3794645582302059
 40
0.4240910461855147
 40
0.4688401285536611
 40
0.5137170425027086
 40
0.5587236546597628
 40
0.6038587066497454
 40
0.6491165080324394
 40
0.6944866833434448
 40
0.7399539101884098
 40
0.7854971919904952
 40
0.8310900004362296
 40
0.8766894773239697
 40
0.9222566453542692
 40
0.9677500683395013
 40
1.0
 40
1.0
 40
1.0
 40
1.0
 10
764.0483210042835
 20
-479.8895701366785
 30
0.0
 10
762.9556585417051
 20
-481.7980370695121
 30
0.0
 10
759.9850175588066
 20
-486.9866202590586
 30
0.0
 10
755.3034799176432
 20
-495.550764768795
 30
0.0
 10
750.0611436699403
 20
-505.6059025185928
 30
0.0
 10
745.0325593363418
 20
-515.7701557409937
 30
0.0
 10
740.217379411809
 20
-526.0372405290918
 30
0.0
 10
735.6201346860822
 20
-536.4037969887005
 30
0.0
 10
731.2445835057249
 20
-546.8657399503558
 30
0.0
 10
727.0948949006817
 20
-557.4190460340008
 30
0.0
 10
723.175771522879
 20
-568.0595415654414
 30
0.0
 10
719.4920644043721
 20
-578.7827519434996
 30
0.0
 10
716.0491711646197
 20
-589.5839214752976
 30
0.0
 10
712.8527411217432
 20
-600.4577445906622
 30
0.0
 10
709.9088021601506
 20
-611.398370888119
 30
0.0
 10
707.2237272114629
 20
-622.3991756636763
 30
0.0
 10
704.8041151076205
 20
-633.4526506885512
 30
0.0
 10
702.6567513420565
 20
-644.550250836347
 30
0.0
 10
700.788510261989
 20
-655.6822533634652
 30
0.0
 10
699.2060699510305
 20
-666.8377260537918
 30
0.0
 10
697.9165116809255
 20
-678.0034621008939
 30
0.0
 10
696.9242528256877
 20
-689.1650601226409
 30
0.0
 10
696.241204423613
 20
-700.3061221785238
 30
0.0
 10
695.8854299127959
 20
-710.3444794146167
 30
0.0
 10
695.8476928305076
 20
-716.658633741005
 30
0.0
 10
695.8320385237131
 20
-719.2779064292984
 30
0.0
  0
SPLINE
  5
D8
330
1F
100
AcDbEntity
  8
0
  6
Continuous
 62
     7
370
    25
100
AcDbSpline
210
0.0
220
0.0
230
1.0
 70
     8
 71
     3
 72
    25
 73
    21
 74
     0
 42
0.000000001
 43
0.00000001
 40
0.0
 40
0.0
 40
0.0
 40
0.0
 40
0.0593364148272683
 40
0.1173245023313953
 40
0.1742152812997997
 40
0.2302439854256539
 40
0.2856272744503197
 40
0.3405615845156474
 40
0.3952207947709149
 40
0.44975509578926
 40
0.5042894612678742
 40
0.5589204284694691
 40
0.613700156309792
 40
0.6686873086130786
 40
0.7239167964980415
 40
0.7794014847754758
 40
0.8351363805272175
 40
0.8910981062225845
 40
0.9472514249325973
 40
1.0
 40
1.0
 40
1.0
 40
1.0
 10
1095.834606850449
 20
-719.3773192040655
 30
0.0
 10
1095.841477321643
 20
-719.269335617478
 30
0.0
 10
1095.855062143308
 20
-719.0558222026006
 30
0.0
 10
1095.922570414765
 20
-718.3618035938504
 30
0.0
 10
1096.043880604189
 20
-717.4089969943983
 30
0.0
 10
1096.234773298832
 20
-716.1825460021524
 30
0.0
 10
1096.507251544116
 20
-714.7008216655255
 30
0.0
 10
1096.872891665682
 20
-712.9745537396719
 30
0.0
 10
1097.341745815824
 20
-711.0177609424966
 30
0.0
 10
1097.922711494255
 20
-708.8450957858115
 30
0.0
 10
1098.623121826445
 20
-706.472992655558
 30
0.0
 10
1099.448525879383
 20
-703.9198748331104
 30
0.0
 10
1100.402673923828
 20
-701.2058645004583
 30
0.0
 10
1101.487295766478
 20
-698.3527552441523
 30
0.0
 10
1102.702094899171
 20
-695.3833549113295
 30
0.0
 10
1104.044847273056
 20
-692.3220781253931
 30
0.0
 10
1105.510113819497
 20
-689.1941323377229
 30
0.0
 10
1107.093002469365
 20
-686.0272614565527
 30
0.0
 10
1108.740215493845
 20
-682.911057887357
 30
0.0
 10
1109.899959524932
 20
-680.8753433756966
 30
0.0
 10
1110.461702236291
 20
-679.8893087347053
 30
0.0
  0
LWPOLYLINE
  5
D9
330
1F
100
AcDbEntity
  8
0
  6
Continuous
 62
     7
370
    25
100
AcDbPolyline
 90
      151
 70
   128
 43
0.0
 10
754.4106894003
 20
-828.8360810108
 10
760.4568497483
 20
-825.4889305307
 10
766.7405075877
 20
-822.2908795468
 10
773.2506375664
 20
-819.247538603
 10
779.9758113028
 20
-816.3642399588
 10
786.9042395333
 20
-813.6460497549
 10
794.0237668433
 20
-811.0977345584
 10
801.3218914238
 20
-808.7237621231
 10
808.7858296089
 20
-806.5283006291
 10
816.4024658262
 20
-804.515198914
 10
824.1584553297
 20
-802.6879879933
 10
832.0401846874
 20
-801.0498795405
 10
840.033829733
 20
-799.6037445966
 10
848.1253555659
 20
-798.352113571
 10
856.3005745032
 20
-797.2971914475
 10
864.5451566164
 20
-796.4408273714
 10
872.8446139264
 20
-795.7845116077
 10
881.1844057704
 20
-795.3294120376
 10
889.5499019237
 20
-795.0763224553
 10
897.9264089411
 20
-795.0256838576
 10
906.299238646
 20
-795.1775814025
 10
914.6537133984
 20
-795.5317535334
 10
922.975166095
 20
-796.0875798132
 10
931.2489928527
 20
-796.8440870077
 10
939.4607004241
 20
-797.7999399612
 10
947.5958535135
 20
-798.9534720097
 10
955.6402064862
 20
-800.3026515268
 10
963.5796296112
 20
-801.8451123365
 10
971.40020916
 20
-803.5781506722
 10
979.0882052602
 20
-805.4987251767
 10
986.6301414568
 20
-807.603472109
 10
994.0127968104
 20
-809.8886886165
 10
1001.2232085309
 20
-812.3503707526
 10
1008.2487193927
 20
-814.984204352
 10
1015.0770172478
 20
-817.7855635105
 10
1021.6961271229
 20
-820.7495303532
 10
1028.0944210976
 20
-823.8709129034
 10
1034.2606805368
 20
-827.1442323461
 10
1040.1840914813
 20
-830.563744698
 10
1045.8542614402
 20
-834.1234505018
 10
1051.2612404644
 20
-837.8171069917
 10
1056.3955379399
 20
-841.6382377875
 10
1061.2481601242
 20
-845.5801302337
 10
1065.8105880856
 20
-849.6358713254
 10
1070.0748086546
 20
-853.7983534107
 10
1074.0333486681
 20
-858.0602696289
 10
1077.6792723352
 20
-862.4141367205
 10
1081.0061654326
 20
-866.8523223997
 10
1084.0082011583
 20
-871.3670468747
 10
1086.6801111564
 20
-875.9503782858
 10
1089.0172118582
 20
-880.5942844086
 10
1091.0154044828
 20
-885.290608323
 10
1092.6711697683
 20
-890.0311261992
 10
1093.9816206557
 20
-894.8075047184
 10
1094.9444443365
 20
-899.6113771068
 10
1095.5579549368
 20
-904.4343127223
 10
1095.8210777121
 20
-909.2678444263
 10
1095.7333595836
 20
-914.1034989977
 10
1095.2949480654
 20
-918.9327971325
 10
1094.5066070691
 20
-923.7472564854
 10
1093.3697116356
 20
-928.5384312074
 10
1091.8862848136
 20
-933.2979271527
 10
1090.0589080976
 20
-938.0173805888
 10
1087.8907846482
 20
-942.6885190241
 10
1085.3857340234
 20
-947.3031520837
 10
1082.5481394955
 20
-951.8531775919
 10
1079.3829743926
 20
-956.3306150273
 10
1075.8958020987
 20
-960.727605523
 10
1072.0927391752
 20
-965.036445321
 10
1067.9804527268
 20
-969.2495629626
 10
1063.5661630353
 20
-973.3595785946
 10
1058.8576093159
 20
-977.3592750761
 10
1053.8630483996
 20
-981.2416352358
 10
1048.5912560505
 20
-984.9998532765
 10
1043.0514690139
 20
-988.6273317342
 10
1037.2534060896
 20
-992.1177058084
 10
1031.2072457415
 20
-995.4648562885
 10
1024.9235879021
 20
-998.6629072723
 10
1018.4134579235
 20
-1001.7062482161
 10
1011.688284187
 20
-1004.5895468604
 10
1004.7598559565
 20
-1007.3077370643
 10
997.6403286466
 20
-1009.8560522607
 10
990.342204066
 20
-1012.230024696
 10
982.8782658809
 20
-1014.42548619
 10
975.2616296636
 20
-1016.4385879052
 10
967.5056401601
 20
-1018.2657988258
 10
959.6239108024
 20
-1019.9039072786
 10
951.6302657568
 20
-1021.3500422225
 10
943.538739924
 20
-1022.6016732482
 10
935.3635209867
 20
-1023.6565953716
 10
927.1189388734
 20
-1024.5129594477
 10
918.8194815634
 20
-1025.1692752114
 10
910.4796897194
 20
-1025.6243747815
 10
902.1141935661
 20
-1025.8774643638
 10
893.7376865487
 20
-1025.9281029615
 10
885.3648568438
 20
-1025.7762054166
 10
877.0103820914
 20
-1025.4220332858
 10
868.6889293949
 20
-1024.8662070059
 10
860.4151026371
 20
-1024.1096998114
 10
852.2033950657
 20
-1023.153846858
 10
844.0682419763
 20
-1022.0003148094
 10
836.0238890036
 20
-1020.6511352923
 10
828.0844658787
 20
-1019.1086744826
 10
820.2638863298
 20
-1017.3756361469
 10
812.5758902296
 20
-1015.4550616424
 10
805.033954033
 20
-1013.3503147102
 10
797.6512986794
 20
-1011.0650982026
 10
790.440886959
 20
-1008.6034160665
 10
783.4153760971
 20
-1005.9695824671
 10
776.587078242
 20
-1003.1682233087
 10
769.9679683669
 20
-1000.2042564659
 10
763.5696743923
 20
-997.0828739157
 10
757.403414953
 20
-993.809554473
 10
751.4800040085
 20
-990.3900421211
 10
745.8098340497
 20
-986.8303363173
 10
740.4028550254
 20
-983.1366798274
 10
735.26855755
 20
-979.3155490316
 10
730.4159353656
 20
-975.3736565854
 10
725.8535074042
 20
-971.3179154937
 10
721.5892868352
 20
-967.1554334085
 10
717.6307468218
 20
-962.8935171903
 10
713.9848231546
 20
-958.5396500986
 10
710.6579300573
 20
-954.1014644194
 10
707.6558943315
 20
-949.5867399445
 10
704.9839843335
 20
-945.0034085334
 10
702.6468836316
 20
-940.3595024106
 10
700.648691007
 20
-935.6631784961
 10
698.9929257215
 20
-930.9226606199
 10
697.6824748342
 20
-926.1462821007
 10
696.7196511534
 20
-921.3424097123
 10
696.106140553
 20
-916.5194740968
 10
695.8430177778
 20
-911.6859423928
 10
695.9307359062
 20
-906.8502878214
 10
696.3691474244
 20
-902.0209896867
 10
697.1574884208
 20
-897.2065303338
 10
698.2943838543
 20
-892.4153556117
 10
699.7778106762
 20
-887.6558596665
 10
701.6051873922
 20
-882.9364062304
 10
703.7733108416
 20
-878.265267795
 10
706.2783614664
 20
-873.6506347354
 10
709.1159559944
 20
-869.1006092273
 10
712.2811210973
 20
-864.6231717918
 10
715.7682933911
 20
-860.2261812962
 10
719.5713563146
 20
-855.9173414981
 10
723.683642763
 20
-851.7042238565
 10
728.0979324545
 20
-847.5942082246
 10
732.8064861739
 20
-843.5945117431
 10
737.8010470902
 20
-839.7121515834
 10
743.0728394393
 20
-835.9539335426
 10
748.612626476
 20
-832.326455085
 10
754.4106894003
 20
-828.8360810108
  0
LWPOLYLINE
  5
DA
330
1F
100
AcDbEntity
  8
0
  6
Continuous
 62
     7
370
    25
100
AcDbPolyline
 90
      142
 70
   128
 43
0.0
 10
771.1691193052
 20
-838.5105166687
 10
765.739532448
 20
-841.7878334052
 10
760.5682359664
 20
-845.2015284011
 10
755.6654853741
 20
-848.7448175289
 10
751.0410304226
 20
-852.4106733526
 10
746.7040354171
 20
-856.191810301
 10
742.6631272908
 20
-860.0807299079
 10
738.9263218474
 20
-864.0697025638
 10
735.5010316638
 20
-868.150811616
 10
732.3940713587
 20
-872.3159624923
 10
729.6115943719
 20
-876.5568705355
 10
727.1591430141
 20
-880.8651294343
 10
725.041569441
 20
-885.2321716854
 10
723.2630830694
 20
-889.6493385449
 10
721.8272189659
 20
-894.1078617798
 10
720.7368273114
 20
-898.5988819166
 10
719.9940628634
 20
-903.1134786545
 10
719.6004165666
 20
-907.6427012793
 10
719.5566681379
 20
-912.1775473736
 10
719.8628807974
 20
-916.7090206028
 10
720.5184802943
 20
-921.228115508
 10
721.5221442713
 20
-925.7258692097
 10
722.8718812898
 20
-930.1933462003
 10
724.5650150249
 20
-934.6216778821
 10
726.5981789971
 20
-939.0020716914
 10
728.9673376456
 20
-943.3258354293
 10
731.6678074019
 20
-947.5843772616
 10
734.6941987377
 20
-951.7692452567
 10
738.0405109955
 20
-955.872133468
 10
741.7001192175
 20
-959.8848864961
 10
745.6657240964
 20
-963.7995557538
 10
749.9294784159
 20
-967.6083508048
 10
754.4829106594
 20
-971.3037169176
 10
759.3169790107
 20
-974.8783175783
 10
764.4220845252
 20
-978.3250542591
 10
769.7880872638
 20
-981.6370878982
 10
775.4043441595
 20
-984.8078364282
 10
781.2597011145
 20
-987.8310067107
 10
787.342524611
 20
-990.7006006192
 10
793.6407468207
 20
-993.4109167493
 10
800.1418639592
 20
-995.9565737995
 10
806.8329553832
 20
-998.3325215963
 10
813.7007580062
 20
-1000.5340353912
 10
820.731624152
 20
-1002.5567523572
 10
827.9115795061
 20
-1004.3966563822
 10
835.2264021412
 20
-1006.0500871927
 10
842.661543492
 20
-1007.5137677263
 10
850.2022521617
 20
-1008.7847904456
 10
857.8335554823
 20
-1009.860631024
 10
865.5402963933
 20
-1010.7391574702
 10
873.3071755888
 20
-1011.4186179623
 10
881.1187831273
 20
-1011.8976712619
 10
888.9596089685
 20
-1012.1753563
 10
896.8140745836
 20
-1012.2511408392
 10
904.6665803702
 20
-1012.124851522
 10
912.5015477995
 20
-1011.7967529466
 10
920.303435221
 20
-1011.2674959635
 10
928.0567220579
 20
-1010.5381207167
 10
935.746035247
 20
-1009.6100931404
 10
943.3561070927
 20
-1008.4852441318
 10
950.8718226812
 20
-1007.1658030056
 10
958.2782462231
 20
-1005.6543944531
 10
965.5607053469
 20
-1003.9540263766
 10
972.7047278784
 20
-1002.0680655586
 10
979.6961155981
 20
-1000.0002559098
 10
986.5210021926
 20
-997.7547093451
 10
993.1658348162
 20
-995.3358799322
 10
999.6174241393
 20
-992.7485714949
 10
1005.8629430321
 20
-989.9979140423
 10
1011.890020736
 20
-987.0893823977
 10
1017.6866700945
 20
-984.0287408835
 10
1023.2413896278
 20
-980.8220695528
 10
1028.5431506911
 20
-977.4757351069
 10
1033.5814211821
 20
-973.9963772086
 10
1038.3462159195
 20
-970.3909158962
 10
1042.8280512041
 20
-966.6664926566
 10
1047.0180406361
 20
-962.8305124341
 10
1050.9078628473
 20
-958.8905892667
 10
1054.48980233
 20
-954.8545470457
 10
1057.756736267
 20
-950.7303906234
 10
1060.7021793119
 20
-946.5263164575
 10
1063.3202993945
 20
-942.2506791562
 10
1065.6058861108
 20
-937.9119488995
 10
1067.5543928694
 20
-933.5187479349
 10
1069.1619579653
 20
-929.0798019164
 10
1070.4254098481
 20
-924.6039246972
 10
1071.3422091704
 20
-920.0999909577
 10
1071.9105541542
 20
-915.5769605362
 10
1072.1293173714
 20
-911.0438054365
 10
1071.998040475
 20
-906.5095189519
 10
1071.5170237613
 20
-901.9831065412
 10
1070.6871891926
 20
-897.4735614976
 10
1069.5102015694
 20
-892.9898375767
 10
1067.9883842368
 20
-888.5408307486
 10
1066.1247717679
 20
-884.1353731144
 10
1063.9230572802
 20
-879.782214659
 10
1061.3876135092
 20
-875.4899989195
 10
1058.5234770035
 20
-871.2672416962
 10
1055.3363244165
 20
-867.122341697
 10
1051.832496215
 20
-863.0635090657
 10
1048.0189492629
 20
-859.0988110024
 10
1043.9032410172
 20
-855.2361261429
 10
1039.4935558689
 20
-851.483111104
 10
1034.7986419234
 20
-847.8472248143
 10
1029.827820878
 20
-844.335685555
 10
1024.5909689249
 20
-840.955459935
 10
1019.0984762499
 20
-837.7132638412
 10
1013.3612440696
 20
-834.6155363972
 10
1007.3906740944
 20
-831.6684217148
 10
1001.1986132106
 20
-828.8777734562
 10
994.7973577613
 20
-826.2491329742
 10
988.1996163384
 20
-823.7877199982
 10
981.4184755384
 20
-821.4984250307
 10
974.4674302553
 20
-819.385778173
 10
967.3602493378
 20
-817.4539932258
 10
960.1110598826
 20
-815.7068946957
 10
952.73424977
 20
-814.1479466885
 10
945.2444597617
 20
-812.7802605128
 10
937.6565729635
 20
-811.606539935
 10
929.985646337
 20
-810.6291146348
 10
922.2469106995
 20
-809.8499280395
 10
914.4557285775
 20
-809.2705251585
 10
906.627578401
 20
-808.8920556248
 10
898.7779860153
 20
-808.7152828192
 10
890.9225510227
 20
-808.7405382496
 10
883.0768572205
 20
-808.9677854196
 10
875.2564989426
 20
-809.3965742084
 10
867.4769809609
 20
-810.0260439119
 10
859.7537553637
 20
-810.8549506151
 10
852.1021688723
 20
-811.8816489435
 10
844.5374101572
 20
-813.1040981467
 10
837.0744782281
 20
-814.5198681801
 10
829.728214044
 20
-816.1261579537
 10
822.5131793411
 20
-817.9197679598
 10
815.4437251213
 20
-819.897145893
 10
808.5338731144
 20
-822.054357758
 10
801.797336851
 20
-824.387124365
 10
795.2475058581
 20
-826.890818289
 10
788.8973692677
 20
-829.5604593076
 10
782.7595474267
 20
-832.39075698
 10
776.8462135302
 20
-835.3760828943
 10
771.1691193052
 20
-838.5105166687
  0
LWPOLYLINE
  5
DB
330
1F
100
AcDbEntity
  8
0
  6
Continuous
 62
     7
370
    25
100
AcDbPolyline
 90
      151
 70
   128
 43
0.0
 10
917.7523602376
 20
-287.0765945619
 10
922.0639723036
 20
-289.5663967562
 10
926.6161269707
 20
-292.1950720276
 10
931.4008268745
 20
-294.958014385
 10
936.4096953288
 20
-297.8503745366
 10
941.6339236422
 20
-300.8670294606
 10
947.064355412
 20
-304.0026919256
 10
952.6914654504
 20
-307.2519348215
 10
958.5053913948
 20
-310.6089660596
 10
964.4959126345
 20
-314.0679814332
 10
970.6525451409
 20
-317.6228300128
 10
976.9644571739
 20
-321.267330495
 10
983.4206062592
 20
-324.9950826186
 10
990.0096338211
 20
-328.7995523262
 10
996.7200126967
 20
-332.6740352681
 10
1003.5399628416
 20
-336.6117298031
 10
1010.4575040143
 20
-340.6057674233
 10
1017.4604979223
 20
-344.6491397383
 10
1024.5366903695
 20
-348.7347228258
 10
1031.6736374988
 20
-352.8553563064
 10
1038.8588427696
 20
-357.0038007653
 10
1046.0796832009
 20
-361.1728168311
 10
1053.3234831279
 20
-365.3550617618
 10
1060.5775458125
 20
-369.5432293671
 10
1067.8291481748
 20
-373.729925289
 10
1075.06558294
 20
-377.9078130145
 10
1082.2741112232
 20
-382.0696108225
 10
1089.4421416532
 20
-386.2079518777
 10
1096.5570459808
 20
-390.315642761
 10
1103.606369812
 20
-394.385420146
 10
1110.5777641204
 20
-398.410154585
 10
1117.4589668071
 20
-402.3828155301
 10
1124.2379212393
 20
-406.2964181049
 10
1130.9027288349
 20
-410.1440930602
 10
1137.441688575
 20
-413.9190852528
 10
1143.8433523219
 20
-417.6147855881
 10
1150.0964609401
 20
-421.2247184623
 10
1156.1900697493
 20
-424.7425168656
 10
1162.1134806938
 20
-428.1620292175
 10
1167.8563012827
 20
-431.4772560607
 10
1173.4084656634
 20
-434.6823622265
 10
1178.760209267
 20
-437.7717595299
 10
1183.9021695664
 20
-440.7400189419
 10
1188.8253007941
 20
-443.5819186777
 10
1193.5209786513
 20
-446.2924803243
 10
1197.9809713316
 20
-448.8669521049
 10
1202.197436887
 20
-451.3008316898
 10
1206.1630022533
 20
-453.5898144885
 10
1209.8707132004
 20
-455.7298864158
 10
1213.3140158933
 20
-457.7173375815
 10
1216.4869412847
 20
-459.5486254133
 10
1219.3838522335
 20
-461.2205936508
 10
1221.9997227281
 20
-462.7302685586
 10
1224.3299376886
 20
-464.074986667
 10
1226.370414139
 20
-465.2524404046
 10
1228.1175590604
 20
-466.2605320851
 10
1229.5683062697
 20
-467.0975168751
 10
1230.7201480294
 20
-467.7618993682
 10
1231.5710402173
 20
-468.2525248332
 10
1232.1194971569
 20
-468.568512301
 10
1232.3645178608
 20
-468.7093336391
 10
1232.3057230071
 20
-468.6747709733
 10
1231.9431863529
 20
-468.464819344
 10
1231.2775611744
 20
-468.0798570461
 10
1230.3100065098
 20
-467.5206030382
 10
1229.0422293066
 20
-466.7880196113
 10
1227.4764212009
 20
-465.8833975465
 10
1225.6153638846
 20
-464.8082709535
 10
1223.4623132018
 20
-463.5646180194
 10
1221.0210412956
 20
-462.1545203298
 10
1218.2958471443
 20
-460.5805583003
 10
1215.2914933419
 20
-458.8454096539
 10
1212.0132377077
 20
-456.9521110177
 10
1208.4668754334
 20
-454.9040457573
 10
1204.6585915691
 20
-452.7047979597
 10
1200.5950769269
 20
-450.3582193595
 10
1196.2834543243
 20
-447.8683745782
 10
1191.7312996571
 20
-445.2396993068
 10
1186.9465997534
 20
-442.4767569494
 10
1181.9377418358
 20
-439.5844393847
 10
1176.7135029856
 20
-436.5677905435
 10
1171.2830712158
 20
-433.4320794088
 10
1165.6559611774
 20
-430.1828365129
 10
1159.842035233
 20
-426.8258052748
 10
1153.8515139933
 20
-423.3667899013
 10
1147.6948920237
 20
-419.811935239
 10
1141.382969454
 20
-416.1674408394
 10
1134.9268203687
 20
-412.4397130506
 10
1128.3377928067
 20
-408.6352190083
 10
1121.6274139312
 20
-404.7607360663
 10
1114.8074637862
 20
-400.8230415313
 10
1107.8899331503
 20
-396.8289978284
 10
1100.8869287056
 20
-392.7856559309
 10
1093.8107362584
 20
-388.7000485087
 10
1086.6737785924
 20
-384.5794211108
 10
1079.4885943949
 20
-380.4309644864
 10
1072.2677539637
 20
-376.2619484206
 10
1065.0239487683
 20
-372.0797308661
 10
1057.7698808154
 20
-367.8915906369
 10
1050.5182731847
 20
-363.7048490868
 10
1043.2818542245
 20
-359.5269765721
 10
1036.0733101363
 20
-355.3651878881
 10
1028.9052955113
 20
-351.2268377089
 10
1021.7903753787
 20
-347.1191559496
 10
1014.7410462791
 20
-343.0493572712
 10
1007.7696677758
 20
-339.0246137081
 10
1000.8884650891
 20
-335.0519770978
 10
994.1095159252
 20
-331.1383471468
 10
987.4447083297
 20
-327.2906721915
 10
980.9057433212
 20
-323.5156830403
 10
974.5040795743
 20
-319.8200070398
 10
968.2509604194
 20
-316.2100802483
 10
962.1573516102
 20
-312.6922575102
 10
956.2339406657
 20
-309.2727451583
 10
950.4911200767
 20
-305.9575426499
 10
944.9389662328
 20
-302.7524304014
 10
939.5872226292
 20
-299.6630087632
 10
934.4452675982
 20
-296.6947463098
 10
929.5221363705
 20
-293.852846574
 10
924.8264532449
 20
-291.1423123036
 10
920.3664605646
 20
-288.5678161882
 10
916.1499792041
 20
-286.1339457274
 10
912.1844191062
 20
-283.8449842221
 10
908.4767239642
 20
-281.7049031707
 10
905.0334054662
 20
-279.7174611291
 10
901.8604958799
 20
-277.8861641733
 10
898.963569126
 20
-276.214180725
 10
896.3477038997
 20
-274.7045514454
 10
894.0174942076
 20
-273.3598059609
 10
891.9770230256
 20
-272.1823248471
 10
890.2298781041
 20
-271.1742331666
 10
888.7791098214
 20
-270.337260542
 10
887.6272785984
 20
-269.6728719663
 10
886.7763864106
 20
-269.182270836
 10
886.2279400076
 20
-268.8662529507
 10
885.9829087671
 20
-268.7254376953
 10
886.0417036208
 20
-268.7600003611
 10
886.4042402749
 20
-268.9699519905
 10
887.0698654535
 20
-269.3549386232
 10
888.037420118
 20
-269.9141682962
 10
889.3052078579
 20
-270.6467456404
 10
890.871005427
 20
-271.5513737879
 10
892.7320627432
 20
-272.626500381
 10
894.885113426
 20
-273.870153315
 10
897.3263853323
 20
-275.2802510046
 10
900.0515794836
 20
-276.8542617038
 10
903.0559438227
 20
-278.5894042674
 10
906.3341889201
 20
-280.4826603167
 10
909.8805511944
 20
-282.5307255771
 10
913.6888350587
 20
-284.7299733747
 10
917.7523602376
 20
-287.0765945619
  0
LWPOLYLINE
  5
DC
330
1F
100
AcDbEntity
  8
0
  6
Continuous
 62
     7
370
    25
100
AcDbPolyline
 90
      142
 70
   128
 43
0.0
 10
934.5107901425
 20
-296.7510302198
 10
930.7077324874
 20
-294.5548226699
 10
927.1597475595
 20
-292.5058547689
 10
923.873852809
 20
-290.6082155642
 10
920.8565809976
 20
-288.8656899595
 10
918.1139275143
 20
-287.2816796318
 10
915.6513398394
 20
-285.859330776
 10
913.4737070072
 20
-284.6014793607
 10
911.5853279964
 20
-283.5106693686
 10
909.9899960233
 20
-282.5890189605
 10
908.6908404913
 20
-281.8383603938
 10
907.6904639685
 20
-281.2601609316
 10
906.9908262832
 20
-280.8556506031
 10
906.5933393549
 20
-280.6255727649
 10
906.4988039737
 20
-280.5703787798
 10
906.7073781903
 20
-280.6902097603
 10
907.2186510729
 20
-280.9847809815
 10
908.0316321705
 20
-281.4535339648
 10
909.1446882928
 20
-282.0955756426
 10
910.5556014619
 20
-282.9096023089
 10
912.2615952542
 20
-283.8939634955
 10
914.2592715799
 20
-285.0467349722
 10
916.5446580986
 20
-286.3656244496
 10
919.1132134874
 20
-287.8480476203
 10
921.9598485143
 20
-289.4910247374
 10
925.0789102333
 20
-291.291274904
 10
928.4642135943
 20
-293.2452586605
 10
932.10902037
 20
-295.3490502239
 10
936.0061023758
 20
-297.5985564968
 10
940.1477230308
 20
-299.9892326533
 10
944.5256610654
 20
-302.5163878429
 10
949.1312210579
 20
-305.1749600903
 10
953.9552571423
 20
-307.9596820732
 10
958.9882006667
 20
-310.8650788415
 10
964.220047023
 20
-313.8853081139
 10
969.6404191962
 20
-317.0143977341
 10
975.2385476786
 20
-320.2461306451
 10
981.0033257879
 20
-323.574088997
 10
986.9233043984
 20
-326.9916815194
 10
992.9867265151
 20
-330.4921513148
 10
999.1815572371
 20
-334.0684836513
 10
1005.4954975872
 20
-337.7136147079
 10
1011.9160062437
 20
-341.4203102764
 10
1018.4303522243
 20
-345.1811961829
 10
1025.0255780071
 20
-348.9887978252
 10
1031.6886101667
 20
-352.8355797188
 10
1038.40620669
 20
-356.7139089925
 10
1045.1650386363
 20
-360.6160173635
 10
1051.9516875025
 20
-364.5342490475
 10
1058.7526610289
 20
-368.4607900306
 10
1065.5544827607
 20
-372.3878232101
 10
1072.3436288277
 20
-376.3075648828
 10
1079.106633312
 20
-380.2122769263
 10
1085.8300619054
 20
-384.0941542372
 10
1092.5005593256
 20
-387.9454494584
 10
1099.1048967302
 20
-391.758646352
 10
1105.6299559129
 20
-395.526036988
 10
1112.0627661808
 20
-399.2402297371
 10
1118.3905886491
 20
-402.8938207415
 10
1124.6008424835
 20
-406.4795460142
 10
1130.6811891941
 20
-409.9902936045
 10
1136.6195537087
 20
-413.4191035977
 10
1142.40416652
 20
-416.759180281
 10
1148.0235426117
 20
-420.003892151
 10
1153.4665025322
 20
-423.1467232363
 10
1158.7222566883
 20
-426.1815407845
 10
1163.7803631984
 20
-429.1022424094
 10
1168.6307911124
 20
-431.9030481085
 10
1173.2638888021
 20
-434.5783968412
 10
1177.6704787912
 20
-437.1230134468
 10
1181.8418050719
 20
-439.5317930645
 10
1185.7695857884
 20
-441.8000018871
 10
1189.4460237739
 20
-443.9230885731
 10
1192.8638065501
 20
-445.896878925
 10
1196.0161800844
 20
-447.7174237979
 10
1198.8968644966
 20
-449.381108612
 10
1201.5001278151
 20
-450.8847080969
 10
1203.8208175878
 20
-452.2251003728
 10
1205.8543292715
 20
-453.3997475556
 10
1207.5965956953
 20
-454.4062273171
 10
1209.0442029643
 20
-455.2425918282
 10
1210.1942640197
 20
-455.9071730726
 10
1211.0444923947
 20
-456.3986254496
 10
1211.5931706053
 20
-456.7160291839
 10
1211.8392449803
 20
-456.8586774113
 10
1211.782230831
 20
-456.8263621053
 10
1211.4222019143
 20
-456.6191003197
 10
1210.7599063368
 20
-456.2373471151
 10
1209.7966717242
 20
-455.6817948058
 10
1208.5343472696
 20
-454.9536071757
 10
1206.9755091989
 20
-454.0541974355
 10
1205.1232236955
 20
-452.9853346823
 10
1202.9811680718
 20
-451.7491895315
 10
1200.5535938913
 20
-450.3481911576
 10
1197.845326968
 20
-448.7851246291
 10
1194.8617252202
 20
-447.0630822429
 10
1191.6087313533
 20
-445.1855182848
 10
1188.0928043721
 20
-443.1561121446
 10
1184.320938019
 20
-440.9789006387
 10
1180.3005685788
 20
-438.6582491132
 10
1176.039738197
 20
-436.1987267408
 10
1171.5468788773
 20
-433.6052251412
 10
1166.8309020442
 20
-430.8828884299
 10
1161.9011880056
 20
-428.0371314707
 10
1156.7675326111
 20
-425.0735847427
 10
1151.4401070805
 20
-421.9981684855
 10
1145.9294807239
 20
-418.816959814
 10
1140.2466179782
 20
-415.5362883512
 10
1134.4027941132
 20
-412.162663219
 10
1128.4095925973
 20
-408.7027958572
 10
1122.2789515256
 20
-405.1635051627
 10
1116.0230105074
 20
-401.5518967593
 10
1109.6542133998
 20
-397.8750573059
 10
1103.1851700131
 20
-394.1403639943
 10
1096.6287535752
 20
-390.3551758153
 10
1089.9979953648
 20
-386.5270160642
 10
1083.3059977836
 20
-382.6635221467
 10
1076.5661266508
 20
-378.7723132755
 10
1069.791705639
 20
-374.8611790468
 10
1062.9962006662
 20
-370.9378209007
 10
1056.1931250657
 20
-367.0100407095
 10
1049.3959447557
 20
-363.0856860212
 10
1042.6181783378
 20
-359.1724888515
 10
1035.8733075351
 20
-355.2782329828
 10
1029.1746665569
 20
-351.4106900794
 10
1022.535600149
 20
-347.5774919427
 10
1015.9692897384
 20
-343.7862491321
 10
1009.4887270911
 20
-340.044535762
 10
1003.1068196794
 20
-336.3597313278
 10
996.8362431681
 20
-332.7391545411
 10
990.6894203408
 20
-329.1900511646
 10
984.6785737834
 20
-325.7193810891
 10
978.8156310542
 20
-322.3341042529
 10
973.1122036098
 20
-319.0409008052
 10
967.5796816362
 20
-315.8463475287
 10
962.2289811671
 20
-312.7567474879
 10
957.0707758918
 20
-309.7782882191
 10
952.1152758844
 20
-306.9167922801
 10
947.3723435075
 20
-304.1780397049
 10
942.8513669716
 20
-301.5674151275
 10
938.5613446288
 20
-299.090078145
 10
934.5107901425
 20
-296.7510302198
  0
LWPOLYLINE
  5
DD
330
1F
100
AcDbEntity
  8
0
  6
Continuous
 62
     1
370
    25
100
AcDbPolyline
 90
       20
 70
   128
 43
0.0
 10
1037.2534060896
 20
-637.6370940305
 10
1043.0514690139
 20
-641.1274681047
 10
1048.5912560505
 20
-644.7549465624
 10
1053.8630483996
 20
-648.5131646031
 10
1058.8576093159
 20
-652.3955247628
 10
1063.5661630353
 20
-656.3952212443
 10
1067.9804527268
 20
-660.5052368762
 10
1072.0927391752
 20
-664.7183545178
 10
1075.8958020987
 20
-669.0271943159
 10
1079.3829743926
 20
-673.4241848115
 10
1082.5481394955
 20
-677.901622247
 10
1085.3857340234
 20
-682.4516477552
 10
1087.8907846482
 20
-687.0662808147
 10
1090.0589080976
 20
-691.7374192501
 10
1091.8862848136
 20
-696.4568726862
 10
1093.3697116356
 20
-701.2163686314
 10
1094.5066070691
 20
-706.0075433535
 10
1095.2949480654
 20
-710.8220027064
 10
1095.7333595836
 20
-715.6513008412
 10
1095.8320569661
 20
-719.2779064293
  0
LWPOLYLINE
  5
DE
330
1F
100
AcDbEntity
  8
0
  6
Continuous
 62
     1
370
    25
100
AcDbPolyline
 90
       58
 70
   128
 43
0.0
 10
695.8320385237
 20
-719.2779064293
 10
695.8430177778
 20
-718.0688574461
 10
696.106140553
 20
-713.235325742
 10
696.7196511534
 20
-708.4123901266
 10
697.6824748342
 20
-703.6085177381
 10
698.9929257215
 20
-698.832139219
 10
700.648691007
 20
-694.0916213428
 10
702.6468836316
 20
-689.3952974283
 10
704.9839843335
 20
-684.7513913055
 10
707.6558943315
 20
-680.1680598944
 10
710.6579300573
 20
-675.6533354195
 10
713.9848231546
 20
-671.2151497403
 10
717.6307468218
 20
-666.8612826486
 10
721.5892868352
 20
-662.5993664304
 10
725.8535074042
 20
-658.4368843451
 10
730.4159353656
 20
-654.3811432535
 10
735.26855755
 20
-650.4392508072
 10
740.4028550254
 20
-646.6181200114
 10
745.8098340497
 20
-642.9244635215
 10
751.4800040085
 20
-639.3647577177
 10
757.403414953
 20
-635.9452453658
 10
763.5696743923
 20
-632.6719259232
 10
769.9679683669
 20
-629.550543373
 10
776.587078242
 20
-626.5865765302
 10
783.4153760971
 20
-623.7852173718
 10
790.440886959
 20
-621.1513837724
 10
797.6512986794
 20
-618.6897016363
 10
805.033954033
 20
-616.4044851287
 10
812.5758902296
 20
-614.2997381965
 10
820.2638863298
 20
-612.3791636919
 10
828.0844658787
 20
-610.6461253562
 10
836.0238890036
 20
-609.1036645466
 10
844.0682419763
 20
-607.7544850295
 10
852.2033950657
 20
-606.6009529809
 10
860.4151026371
 20
-605.6451000275
 10
868.6889293949
 20
-604.8885928329
 10
877.0103820914
 20
-604.3327665531
 10
885.3648568438
 20
-603.9785944223
 10
893.7376865487
 20
-603.8266968773
 10
902.1141935661
 20
-603.877335475
 10
910.4796897194
 20
-604.1304250573
 10
918.8194815634
 20
-604.5855246274
 10
927.1189388734
 20
-605.2418403911
 10
935.3635209867
 20
-606.0982044672
 10
943.538739924
 20
-607.1531265907
 10
951.6302657568
 20
-608.4047576164
 10
959.6239108024
 20
-609.8508925602
 10
967.5056401601
 20
-611.4890010131
 10
975.2616296636
 20
-613.3162119337
 10
982.8782658809
 20
-615.3293136489
 10
990.342204066
 20
-617.5247751429
 10
997.6403286466
 20
-619.8987475781
 10
1004.7598559565
 20
-622.4470627746
 10
1011.688284187
 20
-625.1652529785
 10
1018.4134579235
 20
-628.0485516228
 10
1024.9235879021
 20
-631.0918925666
 10
1031.2072457415
 20
-634.2899435504
 10
1037.2534060896
 20
-637.6370940305
  0
ARC
  5
DF
330
1F
100
AcDbEntity
  8
0
  6
Continuous
 62
     1
370
    25
100
AcDbCircle
 10
895.8320477449
 20
-522.91540276
 30
0.0
 40
298.1606365826733
100
AcDbArc
 50
258.2964909874
 51
281.7035090126
  0
LWPOLYLINE
  5
E0
330
1F
100
AcDbEntity
  8
0
  6
Continuous
 62
     1
370
    25
100
AcDbPolyline
 90
       24
 70
   128
 43
0.0
 10
1037.2534060896
 20
-637.6370940305
 10
1043.0877995973
 20
-641.0052134156
 10
1048.7365257006
 20
-644.2660920611
 10
1054.1896654021
 20
-647.4140526062
 10
1059.4376658553
 20
-650.443543954
 10
1064.4713192907
 20
-653.3492507743
 10
1069.2817788214
 20
-656.1261026251
 10
1073.8606203462
 20
-658.7692001924
 10
1078.1998122561
 20
-661.273907297
 10
1082.2917286058
 20
-663.6358463342
 10
1086.1291991628
 20
-665.8508784972
 10
1089.7054909678
 20
-667.9150931328
 10
1093.0143346773
 20
-669.8248837804
 10
1096.0499140261
 20
-671.576881251
 10
1098.8069132429
 20
-673.168041842
 10
1101.2804854402
 20
-674.5955682405
 10
1103.4663105661
 20
-675.8569429896
 10
1105.3605427205
 20
-676.9499588984
 10
1106.9598470341
 20
-677.8726794965
 10
1108.2614365465
 20
-678.6235333354
 10
1109.2630142545
 20
-679.2011466748
 10
1109.9628310639
 20
-679.6045472928
 10
1110.359664716
 20
-679.8330184731
 10
1110.4584885391
 20
-679.8895574695
  0
LWPOLYLINE
  5
E1
330
1F
100
AcDbEntity
  8
0
  6
Continuous
 62
     1
370
    25
100
AcDbPolyline
 90
       54
 70
   128
 43
0.0
 10
764.0483210043
 20
-479.8895701367
 10
764.054013463
 20
-479.8929662492
 10
764.2647200467
 20
-480.0152668825
 10
764.7789188425
 20
-480.3127715117
 10
765.5956895345
 20
-480.7849761878
 10
766.713607197
 20
-481.4310477946
 10
768.1307057454
 20
-482.24983299
 10
769.8445083938
 20
-483.2399136241
 10
771.8520069109
 20
-484.3995578833
 10
774.1496667236
 20
-485.7267295134
 10
776.7334661007
 20
-487.2191016957
 10
779.5988814999
 20
-488.8740290096
 10
782.7408711044
 20
-490.6886299453
 10
786.1539228969
 20
-492.6597348123
 10
789.832057293
 20
-494.7838477149
 10
793.7688231908
 20
-497.05729485
 10
797.9573085072
 20
-499.4760237415
 10
802.3901612512
 20
-502.0358587584
 10
807.0596158661
 20
-504.7322425594
 10
811.9574747898
 20
-507.5605144208
 10
817.0751453335
 20
-510.5156456029
 10
822.4036396818
 20
-513.5924826901
 10
827.9336328445
 20
-516.7856533009
 10
833.6554047047
 20
-520.0895022077
 10
839.558919044
 20
-523.4982890603
 10
845.6338235427
 20
-527.0059815343
 10
851.869465585
 20
-530.606453059
 10
858.2548975268
 20
-534.2933946019
 10
864.7789241117
 20
-538.0603237928
 10
871.4300761283
 20
-541.9006244698
 10
878.1967315833
 20
-545.8075862241
 10
885.0669734552
 20
-549.7743161855
 10
892.0287688189
 20
-553.7938911138
 10
899.0699161615
 20
-557.8592539805
 10
906.1780453831
 20
-561.9632748002
 10
913.3406810166
 20
-566.0987141304
 10
920.5452843745
 20
-570.2583812494
 10
927.7791850604
 20
-574.4349242636
 10
935.0297126781
 20
-578.6210400002
 10
942.284149416
 20
-582.8093736231
 10
949.5297458524
 20
-586.9925885916
 10
956.7538157859
 20
-591.163360582
 10
963.9436677468
 20
-595.3143379378
 10
971.0866998274
 20
-599.4382572633
 10
978.1703838769
 20
-603.5278734563
 10
985.1822760383
 20
-607.57602663
 10
992.1100852369
 20
-611.5756208175
 10
998.9416547412
 20
-615.519613327
 10
1005.6650122119
 20
-619.4010923046
 10
1012.2683407264
 20
-623.2132721697
 10
1018.740074926
 20
-626.9494396258
 10
1025.0688575522
 20
-630.6030380653
 10
1031.2435763249
 20
-634.1676888613
 10
1037.2534060896
 20
-637.6370940305
  0
ENDSEC
  0
SECTION
  2
OBJECTS
  0
DICTIONARY
  5
C
330
0
100
AcDbDictionary
281
     1
  3
ACAD_GROUP
350
D
  3
ACAD_LAYOUT
350
1A
  3
ACAD_MLINESTYLE
350
17
  3
ACAD_PLOTSETTINGS
350
19
  3
ACAD_PLOTSTYLENAME
350
E
  3
ACAD_SCALELIST
350
47
  0
DICTIONARY
  5
D
102
{ACAD_REACTORS
330
C
102
}
330
C
100
AcDbDictionary
281
     1
  0
DICTIONARY
  5
1A
102
{ACAD_REACTORS
330
C
102
}
330
C
100
AcDbDictionary
281
     1
  3
Layout1
350
1E
  3
Layout2
350
26
  3
Model
350
22
  0
DICTIONARY
  5
17
102
{ACAD_REACTORS
330
C
102
}
330
C
100
AcDbDictionary
281
     1
  3
Standard
350
18
  0
DICTIONARY
  5
19
102
{ACAD_REACTORS
330
C
102
}
330
C
100
AcDbDictionary
281
     1
  0
ACDBDICTIONARYWDFLT
  5
E
102
{ACAD_REACTORS
330
C
102
}
330
C
100
AcDbDictionary
281
     1
  3
Normal
350
F
100
AcDbDictionaryWithDefault
340
F
  0
DICTIONARY
  5
47
102
{ACAD_REACTORS
330
C
102
}
330
C
100
AcDbDictionary
281
     1
  3
A0
350
48
  3
A1
350
49
  3
A2
350
4A
  3
A3
350
4B
  3
A4
350
4C
  3
A5
350
4D
  3
A6
350
4E
  3
A7
350
4F
  3
A8
350
50
  3
A9
350
51
  3
B0
350
52
  3
B1
350
53
  3
B2
350
54
  3
B3
350
55
  3
B4
350
56
  3
B5
350
57
  3
B6
350
58
  3
B7
350
59
  3
B8
350
5A
  3
B9
350
5B
  3
C0
350
5C
  3
C1
350
5D
  3
C2
350
5E
  3
C3
350
5F
  3
C4
350
60
  3
C5
350
61
  3
C6
350
62
  3
C7
350
63
  3
C8
350
64
  3
C9
350
65
  3
D0
350
66
  3
D1
350
67
  3
D2
350
68
  0
LAYOUT
  5
1E
102
{ACAD_REACTORS
330
1A
102
}
330
1A
100
AcDbPlotSettings
  1

  2
none_device
  4

  6

 40
0.0
 41
0.0
 42
0.0
 43
0.0
 44
0.0
 45
0.0
 46
0.0
 47
0.0
 48
0.0
 49
0.0
140
0.0
141
0.0
142
1.0
143
1.0
 70
   688
 72
     1
 73
     0
 74
     5
  7

 75
    16
147
1.0
148
0.0
149
0.0
100
AcDbLayout
  1
Layout1
 70
     1
 71
     1
 10
0.0
 20
0.0
 11
420.0
 21
297.0
 12
0.0
 22
0.0
 32
0.0
 14
1.0000000000E+20
 24
1.0000000000E+20
 34
1.0000000000E+20
 15
-1.0000000000E+20
 25
-1.0000000000E+20
 35
-1.0000000000E+20
146
0.0
 13
0.0
 23
0.0
 33
0.0
 16
1.0
 26
0.0
 36
0.0
 17
0.0
 27
1.0
 37
0.0
 76
     0
330
1B
  0
LAYOUT
  5
26
102
{ACAD_REACTORS
330
1A
102
}
330
1A
100
AcDbPlotSettings
  1

  2
none_device
  4

  6

 40
0.0
 41
0.0
 42
0.0
 43
0.0
 44
0.0
 45
0.0
 46
0.0
 47
0.0
 48
0.0
 49
0.0
140
0.0
141
0.0
142
1.0
143
1.0
 70
   688
 72
     1
 73
     0
 74
     5
  7

 75
    16
147
1.0
148
0.0
149
0.0
100
AcDbLayout
  1
Layout2
 70
     1
 71
     2
 10
0.0
 20
0.0
 11
0.0
 21
0.0
 12
0.0
 22
0.0
 32
0.0
 14
0.0
 24
0.0
 34
0.0
 15
0.0
 25
0.0
 35
0.0
146
0.0
 13
0.0
 23
0.0
 33
0.0
 16
1.0
 26
0.0
 36
0.0
 17
0.0
 27
1.0
 37
0.0
 76
     0
330
23
  0
LAYOUT
  5
22
102
{ACAD_REACTORS
330
1A
102
}
330
1A
100
AcDbPlotSettings
  1

  2
none_device
  4
Letter_(8.50_x_11.00_Inches)
  6

 40
6.35
 41
6.35
 42
6.35000508
 43
6.35000508
 44
215.9
 45
279.4
 46
0.0
 47
0.0
 48
0.0
 49
0.0
140
0.0
141
0.0
142
1.0
143
1.0
 70
  1712
 72
     1
 73
     0
 74
     0
  7

 75
     0
147
1.0
148
0.0
149
0.0
100
AcDbLayout
  1
Model
 70
     1
 71
     0
 10
0.0
 20
0.0
 11
279.4
 21
215.9
 12
0.0
 22
0.0
 32
0.0
 14
0.0
 24
0.0
 34
0.0
 15
279.4
 25
215.9
 35
0.0
146
0.0
 13
0.0
 23
0.0
 33
0.0
 16
1.0
 26
0.0
 36
0.0
 17
0.0
 27
1.0
 37
0.0
 76
     0
330
1F
331
29
  0
MLINESTYLE
  5
18
102
{ACAD_REACTORS
330
17
102
}
330
17
100
AcDbMlineStyle
  2
Standard
 70
     0
  3

 62
   256
 51
90.0
 52
90.0
 71
     2
 49
0.5
 62
   256
  6
BYLAYER
 49
-0.5
 62
   256
  6
BYLAYER
  0
ACDBPLACEHOLDER
  5
F
102
{ACAD_REACTORS
330
E
102
}
330
E
  0
SCALE
  5
48
102
{ACAD_REACTORS
330
47
102
}
330
47
100
AcDbScale
 70
     0
300
1:1
140
1.0
141
1.0
290
     1
  0
SCALE
  5
49
102
{ACAD_REACTORS
330
47
102
}
330
47
100
AcDbScale
 70
     0
300
1:2
140
1.0
141
2.0
290
     0
  0
SCALE
  5
4A
102
{ACAD_REACTORS
330
47
102
}
330
47
100
AcDbScale
 70
     0
300
1:4
140
1.0
141
4.0
290
     0
  0
SCALE
  5
4B
102
{ACAD_REACTORS
330
47
102
}
330
47
100
AcDbScale
 70
     0
300
1:5
140
1.0
141
5.0
290
     0
  0
SCALE
  5
4C
102
{ACAD_REACTORS
330
47
102
}
330
47
100
AcDbScale
 70
     0
300
1:8
140
1.0
141
8.0
290
     0
  0
SCALE
  5
4D
102
{ACAD_REACTORS
330
47
102
}
330
47
100
AcDbScale
 70
     0
300
1:10
140
1.0
141
10.0
290
     0
  0
SCALE
  5
4E
102
{ACAD_REACTORS
330
47
102
}
330
47
100
AcDbScale
 70
     0
300
1:16
140
1.0
141
16.0
290
     0
  0
SCALE
  5
4F
102
{ACAD_REACTORS
330
47
102
}
330
47
100
AcDbScale
 70
     0
300
1:20
140
1.0
141
20.0
290
     0
  0
SCALE
  5
50
102
{ACAD_REACTORS
330
47
102
}
330
47
100
AcDbScale
 70
     0
300
1:30
140
1.0
141
30.0
290
     0
  0
SCALE
  5
51
102
{ACAD_REACTORS
330
47
102
}
330
47
100
AcDbScale
 70
     0
300
1:40
140
1.0
141
40.0
290
     0
  0
SCALE
  5
52
102
{ACAD_REACTORS
330
47
102
}
330
47
100
AcDbScale
 70
     0
300
1:50
140
1.0
141
50.0
290
     0
  0
SCALE
  5
53
102
{ACAD_REACTORS
330
47
102
}
330
47
100
AcDbScale
 70
     0
300
1:100
140
1.0
141
100.0
290
     0
  0
SCALE
  5
54
102
{ACAD_REACTORS
330
47
102
}
330
47
100
AcDbScale
 70
     0
300
2:1
140
2.0
141
1.0
290
     0
  0
SCALE
  5
55
102
{ACAD_REACTORS
330
47
102
}
330
47
100
AcDbScale
 70
     0
300
4:1
140
4.0
141
1.0
290
     0
  0
SCALE
  5
56
102
{ACAD_REACTORS
330
47
102
}
330
47
100
AcDbScale
 70
     0
300
8:1
140
8.0
141
1.0
290
     0
  0
SCALE
  5
57
102
{ACAD_REACTORS
330
47
102
}
330
47
100
AcDbScale
 70
     0
300
10:1
140
10.0
141
1.0
290
     0
  0
SCALE
  5
58
102
{ACAD_REACTORS
330
47
102
}
330
47
100
AcDbScale
 70
     0
300
100:1
140
100.0
141
1.0
290
     0
  0
SCALE
  5
59
102
{ACAD_REACTORS
330
47
102
}
330
47
100
AcDbScale
 70
     0
300
1/128" = 1'-0"
140
0.0078125
141
12.0
290
     0
  0
SCALE
  5
5A
102
{ACAD_REACTORS
330
47
102
}
330
47
100
AcDbScale
 70
     0
300
1/64" = 1'-0"
140
0.015625
141
12.0
290
     0
  0
SCALE
  5
5B
102
{ACAD_REACTORS
330
47
102
}
330
47
100
AcDbScale
 70
     0
300
1/32" = 1'-0"
140
0.03125
141
12.0
290
     0
  0
SCALE
  5
5C
102
{ACAD_REACTORS
330
47
102
}
330
47
100
AcDbScale
 70
     0
300
1/16" = 1'-0"
140
0.0625
141
12.0
290
     0
  0
SCALE
  5
5D
102
{ACAD_REACTORS
330
47
102
}
330
47
100
AcDbScale
 70
     0
300
3/32" = 1'-0"
140
0.09375
141
12.0
290
     0
  0
SCALE
  5
5E
102
{ACAD_REACTORS
330
47
102
}
330
47
100
AcDbScale
 70
     0
300
1/8" = 1'-0"
140
0.125
141
12.0
290
     0
  0
SCALE
  5
5F
102
{ACAD_REACTORS
330
47
102
}
330
47
100
AcDbScale
 70
     0
300
3/16" = 1'-0"
140
0.1875
141
12.0
290
     0
  0
SCALE
  5
60
102
{ACAD_REACTORS
330
47
102
}
330
47
100
AcDbScale
 70
     0
300
1/4" = 1'-0"
140
0.25
141
12.0
290
     0
  0
SCALE
  5
61
102
{ACAD_REACTORS
330
47
102
}
330
47
100
AcDbScale
 70
     0
300
3/8" = 1'-0"
140
0.375
141
12.0
290
     0
  0
SCALE
  5
62
102
{ACAD_REACTORS
330
47
102
}
330
47
100
AcDbScale
 70
     0
300
1/2" = 1'-0"
140
0.5
141
12.0
290
     0
  0
SCALE
  5
63
102
{ACAD_REACTORS
330
47
102
}
330
47
100
AcDbScale
 70
     0
300
3/4" = 1'-0"
140
0.75
141
12.0
290
     0
  0
SCALE
  5
64
102
{ACAD_REACTORS
330
47
102
}
330
47
100
AcDbScale
 70
     0
300
1" = 1'-0"
140
1.0
141
12.0
290
     0
  0
SCALE
  5
65
102
{ACAD_REACTORS
330
47
102
}
330
47
100
AcDbScale
 70
     0
300
1-1/2" = 1'-0"
140
1.5
141
12.0
290
     0
  0
SCALE
  5
66
102
{ACAD_REACTORS
330
47
102
}
330
47
100
AcDbScale
 70
     0
300
3" = 1'-0"
140
3.0
141
12.0
290
     0
  0
SCALE
  5
67
102
{ACAD_REACTORS
330
47
102
}
330
47
100
AcDbScale
 70
     0
300
6" = 1'-0"
140
6.0
141
12.0
290
     0
  0
SCALE
  5
68
102
{ACAD_REACTORS
330
47
102
}
330
47
100
AcDbScale
 70
     0
300
1'-0" = 1'-0"
140
12.0
141
12.0
290
     0
  0
ENDSEC
  0
EOF
